Song name
# A B C D E F G H I J K L M N O P Q R S T U V W X Y Z

Insite - Siempre Me Dejas tab

Help us improve GuitareTab! Take a short survey!
## MI FIRST TAB     ##
## SPANISH          ##
## THE ZATAX ADM    ##

## INSITE           ##
## SIEMPRE ME DEJAS ##


pues en esta tab no contare al violin, ya que,
no todos los grupos que quieren sacar esta rola
tienen un violin, asi que lo ejecutare como
dos guitarras, las dos llevan las sig afinacion
y poes espero que les gusthe:

vagofo_34@hotmail.com


AFINACION:

E / A / D / G / B / E
---------------------

GUITARRA 1 (acustica):

e|--8-----10-7-------------||
B|---0---------8---6---5---||
G|----0--0------0---0---0--||
D|---------------0---0---0-||
A|-------------------------||
E|--8--8-----8-------------||(x4)


GUITARRA 2 (acustica):

e|-----------------||
B|--10----8--------||
G|---------7---7-7-||
D|-----------------||
A|-----------------||
E|--8--------------||(X2)


::entra la primera guitarra y despues de hacer su parte, entra la guitarra 2 con los 2 
que sobran::

GUITARRA 1 (heavy):

e|--------------------------------------||
B|--------------------------------------||
G|----5-55555555555555------------------||
D|----5-55555555555555-7-77777777777777-||
A|----3-33333333333333-7-77777777777777-||
E|----3-33333333333333-5-55555555555555-||(X2)
P.M.  ..  ..    ....   ..  ..    ....

GUITARRA 2 (heavy):

e|------------------------||
B|--13---15/12------------||
G|--xx---xx/xx---12/10/9/-||
D|--10---12/-9---xx/xx/x/-||
A|---------------10/-8/7/-||
E|------------------------||(x2)

GUITARRA 1:

e|------||
B|------||
G|------||
D|--3~~-||
A|--3~~-||
E|--1~~-||

  " solo dejame hablar..."

:: lo que yo hago con mi grupo es hacer algun rasgueado en las siguientes notas::

GUITARRA 2 (limpia o acustica)

e|--0---0---0---2-||
B|--1---1---1---2-||
G|--2---2---2---0-||
D|--0---0---2---0-||
A|--3---3---0---2-||
E|--x---x---x---3-||
    c   c   am  g

GUITARRA 1 y 2 (heavy)

e|----------------------------||
B|----------------------------||
G|---------77-7---------------||
D|--33-3---77-7---77-7---55-5-||
A|--33-3---55-5---77-7---55-5-||
G|--11-1---55-5---55-5---33-3-||
  ".ce mentira, que todo el mundo, de vueltas a tu alrededor "

GUITARRA 1 y 2(heavy):

e|------------------------------------------------------------------------||
B|------------------------------------------------------------------------||
G|PM-------------------7777777777777777-----------------------------------||
D|PM--3333333333333333-7777777777777777-7777777777777777-5555555555555555-||
A|PM--3333333333333333-5555555555555555-7777777777777777-5555555555555555-||
E|PM--1111111111111111-5555555555555555-5555555555555555-3333333333333333-||
 "..tuu...                   siempre me dejas...."


GUITARRA 1 (heavy):

e|------------------------------------||
B|------------------------------------||
G|--5555555555555555------------------||
D|--5555555555555555-7777777777777777-||
A|--3333333333333333-7777777777777777-||
E|--3333333333333333-5555555555555555-||(X2)
   " maaaaaaaas      por miiii..."

GUITARRA 2 (heavy):

e|----------------------||
B|--13--15/12-----------||
G|--xx--xx/xx--12/10/9/-||
D|--10--12/-9--xx/xx/x/-||
A|-------------10/-8/7/-||
E|----------------------||(x2)

GUITARRA 1(heavy)

e|----------------------------------------------------------------------||
B|----------------------------------------------------------------------||
G|-------------------7777777777777777-----------------------------------||
D|--3333333333333333-7777777777777777-7777777777777777-5555555555555555-||
A|--3333333333333333-5555555555555555-7777777777777777-5555555555555555-||
E|--1111111111111111-5555555555555555-5555555555555555-3333333333333333-||(x2)
           " perdoname        yo me resisto a..."

GUITARRA 2(heavy)

e|--------------------------------------------------------||
B|--------------------------------------------------------||
G|--5----------------7---------------12-10-9-10-9-7-7-9-5-||
D|--x----------------x---------------xx-xx-x-xx-x-x-x-x-x-||
A|--3----------------5---------------10--8-7--8-7-5-5-7-3-||
E|--------------------------------------------------------||(X2)

GUITARRA 1(heavy)

e|----------------------------------------------------------------------||
B|----------------------------------------------------------------------||
G|-------------------7777777777777777-----------------------------------||
D|--3333333333333333-7777777777777777-7777777777777777-5555555555555555-||
A|--3333333333333333-5555555555555555-7777777777777777-5555555555555555-||
E|--1111111111111111-5555555555555555-5555555555555555-3333333333333333-||(x2)
           " perdoname      es que no puedo verme..."

GUITARRA 2(heavy)

e|----------------------------------------------------------||
B|----------------------------------------------------------||
G|--5----------------7---------------12-10-9-10-------------||
D|--x----------------x---------------xx-xx-x-xx-33333333333-||
A|--3----------------5---------------10--8-7--8-33333333333-||
E|----------------------------------------------55555555555-||
P.M.                                             .. .. ....


GUITARRA 1 (heavy):

e|------------------------------------||
B|------------------------------------||
G|--5555555555555555------------------||
D|--5555555555555555-7777777777777777-||
A|--3333333333333333-7777777777777777-||
E|--3333333333333333-5555555555555555-||(X2)
   " maaaaaaaas      por miiii..."

GUITARRA 2 (heavy):

e|----------------------||
B|--13--15/12-----------||
G|--xx--xx/xx--12/10/9/-||
D|--10--12/-9--xx/xx/x/-||
A|-------------10/-8/7/-||
E|----------------------||(x2)

GUITARRA 1 y 2(heavy):

e|------||
B|------||
G|------||
D|--3~~-||
A|--3~~-||
E|--1~~-|| (junto con el cambio de la bateria dejas sonando en este accord)

           " y siempre me dejas..."

GUITARRA 1(acustico):

e|--0--0--0--2-||
B|--1--1--1--2-||
G|--2--2--2--0-||
D|--0--2--0--0-||
A|--3--0--3--2-||
E|--x--x--x--3-||(x2)
    C Am  C  G

GUITARRA 2(clean & chorus & delay):

e|---8-7---8-7--8/10-8---8-7-||
B|--8-8---8-8---8-------8-8--||
G|---------------------------||
A|---------------------------||
D|---------------------------||
E|---------------------------||(x2)


GUITARRA 1 (heavy):

e|------------------------------------||
B|------------------------------------||
G|--5555555555555555------------------||
D|--5555555555555555-7777777777777777-||
A|--3333333333333333-7777777777777777-||
E|--3333333333333333-5555555555555555-||(X4)
   " maaaaaaaas      por miiii..."

GUITARRA 2 (heavy):

e|----------------------||
B|--13--15/12-----------||
G|--xx--xx/xx--12/10/9/-||
D|--10--12/-9--xx/xx/x/-||
A|-------------10/-8/7/-||
E|----------------------||(x4)


--FINAL--

e|-----0--||
B|-----0--||
G|-5~~-4--||
D|-5~~-5--||
A|-3~~-3--||
E|--------|| TERMINA RASGUEANDO EN ESTA NOTA, LAS MIMAS VECES
           QUE EL BATAKO SUENA EL BOMBO Y EL PLATO.. !!
Related for Siempre Me Dejas tab