Song name
# A B C D E F G H I J K L M N O P Q R S T U V W X Y Z

Insolence - Poison Well tab

Author/Artist: Insolence
Title: Poison Well
Album: Revolution
Transcribed by: Billy Donovan
Email: master_billy16@hotmail.com

April 28, 2001

Its in Drop D.
Their CD comes out June 12th.

--10-9------------------------------------------------------------------------
---------7-8-7-8--------------------------------------------------------------
-7-----8----------------------------------------------------------------------
------------------------------------------------------------------------------
------------------------------------------------------------------------------
------------------------------------------------------------------------------
 Riff A                                                                       

------------------------------------------------------------------------------
------------------------------------------------------------------------------
------------------------------------------------------------------------------
-0-0-0-1-0-1------------------------------------------------------------------
-0-0-0-1-0-1------------------------------------------------------------------
-0-0-0-1-0-1------------------------------------------------------------------
 Riff B                                                                       

------------------------------------------------------------------------------
------------------------------------------------------------------------------
------------------------------------------------------------------------------
-0-0-0-1-0-3-0-4-3-1----------------------------------------------------------
-0-0-0-1-0-3-0-4-3-1----------------------------------------------------------
-0-0-0-1-0-3-0-4-3-1----------------------------------------------------------
 Riff C                                                                       
====
Tap to rate this tab
# A B C D E F G H I J K L M N O P Q R S T U V W X Y Z