Song name
# A B C D E F G H I J K L M N O P Q R S T U V W X Y Z

Insomnium - Last Statement tab

Last statement

Insomnium

From 'Above the weeping world'

Insomnium are probably one of the better melodeath bands at the moment.
The solo is quite laidback and pretty easy to grasp if you are happy with playing the 
scale.
The original is tuned in either D standard or dropped D tuning.
This is the solo transcribed (roughly) for Standard tuned guitars.

This was tabbed at the request of a few people from the internets.

I Hope I have delivered this tab clearly and you have fun playing and learning this 
Its pretty damn awesome.

05:08

e -------------------------------------------------------------|
B ---10h13----13b15----13b15----13b15--13~---------------------|
G -------------------------------------------------------------|
D -------------------------------------------------------------|
A -------------------------------------------------------------|
E -------------------------------------------------------------|

e -------------------------------------------------------------|
B -10h13p10--------10---------------10h13---13b15--13~---------|
G ------------12-------12---10h12------------------------------|
D -------------------------------------------------------------|
A -------------------------------------------------------------|
E -------------------------------------------------------------|

e -13p12-------------------------------------------------------|
B -------13p10-------------------------------------------------|
G --------------12p10p9----------------------------------------|
D ----------------------12--10~--------------------------------|
A -------------------------------------------------------------|
E -------------------------------------------------------------|

e -13-13--15b17r15~--------------------------------------------|
B -------------------------------------------------------------|
G -------------------------------------------------------------|
D -------------------------------------------------------------|
A -------------------------------------------------------------|
E -------------------------------------------------------------|

e --10--10-10------------------------------------------------------------|
B -------------10--13------10-----------10-------------------------------|
G ---------------------12------10-12-9------10-12--9--10------9----------|
D -------------------------------------------------------12------10------|
A -----------------------------------------------------------------------|
E -----------------------------------------------------------------------|

e -----------------------------------------------------------------------|
B -----------------------------------------------------------------------|
G --------------------------------------------12-------------------------|
D -10\12---------10--10h12---12p10-10--10h12------12---10h12--12---------|
A --------/12------------------------------------------------------------|
E -----------------------------------------------------------------------|

e -10--------------------------10------------------------------|
B -----10----------------10--------10--------------------------|
G ---------12~------12-----------------10~--9---10~------------|
D -------------------------------------------------------------|
A -------------------------------------------------------------|
E -------------------------------------------------------------|


e --10-------10--10h12-------12--12h13---13\15---10~-----------|
B ------10--------------10-------------------------------------|
G -------------------------------------------------------------|
D -------------------------------------------------------------|
A -------------------------------------------------------------|
E -------------------------------------------------------------|

e -12b13r12----------------------------------------------------|
B -----------13p10-------10------------------------------------|
G -------------------12----------------------------------------|
D -------------------------------------------------------------|
A -------------------------------------------------------------|
E -------------------------------------------------------------|

e -------------------------------------------------------------|
B -------------------------------------------------------------|
G --9b10r9----5------------------------------------------------|
D ------------------7---5--7~----------------------------------|
A -------------------------------------------------------------|
E -------------------------------------------------------------|

e -------------------------------------------------------------|
B ------------------------------------10--13b15r13---13~-------|
G --12b14--10-9-------9---9h10---12----------------------------|
D ----------------12-------------------------------------------|
A -------------------------------------------------------------|
E -------------------------------------------------------------|

Transcribed by Adam Scott
Tap to rate this tab
# A B C D E F G H I J K L M N O P Q R S T U V W X Y Z