Song name
# A B C D E F G H I J K L M N O P Q R S T U V W X Y Z

Insomnium - In The Groves Of Death tab

			     Insomnium - In the Groves of Death

Tabbed by: slayercherry
Email: kittiepurr@live.se

Tuning: G

e|-0---2---0---2---0-0-2---0-0-2-0-----2-------2-------2-------2---|
B|---0---0---0---0-------0---------3-------3-------3-3-----3-3---3-|
G|-----------------------------------4---4---4---4-------4---------|
D|-----------------------------------------------------------------|
A|-----------------------------------------------------------------|
E|-----------------------------------------------------------------|

e|-----2-------2-------2-------2-------2-------2-------2-------2---|
B|-2-------2-------2-2-----2-2---2-2-------2-------2-2-----2-2---2-|
G|---4---4---4---4-------4-----------2---2---2---2-------2---------|
D|-----------------------------------------------------------------|
A|-----------------------------------------------------------------|
E|-----------------------------------------------------------------|
(All fingertapping or with pick, you choose.)

This is only how to play the acoustic intro and it's definitely not 100% accurate. It
ok when played like this, though. ALSO, this is my first tab so don't go all ape shit now.
Tap to rate this tab
# A B C D E F G H I J K L M N O P Q R S T U V W X Y Z