Guitaretab - guitar tabs
Song name
# A B C D E F G H I J K L M N O P Q R S T U V W X Y Z

Insomnium - Mortal Share tab

Mortal Share by Insomnium
Tuning: D A D G B E

This is my first tab. I hope it's 100% accurate. I didn't include a legend because I did
know what the articulations in other legends meant. I also didn't use lines such as
2x" or "play verse" because it may be confusing for certain people. In other words, some
call me noob, but I don't care because as long as the tab is accurate, it's all good. I
mark the intro, verse, bridge, solo, and chorus. If you want to learn to play this song
you can't figure out which parts the intro, verse, bridge, solo, and chorus are, well
bad cause that would be sad if you couldn't. Anyways, enough talk and yes the tab is 
long but I just wanted to make everything clear since it is my first tab. Enjoy!

Note: If you are giving a live performance of this song with a band and you only have
guitarists, play the rythym and lead parts.

Lead Guitar
E|--------------------------------------------------------|
B|--------------------------------------------------------|
G|9---1o--1o--1o9---1o--1o--1o9---1o--1o--1o9---1o--7-----|
D|--7---7---7-----7---7---7-----7---7---7-----7---7---7-1o|
A|--------------------------------------------------------|
D|--------------------------------------------------------|

Rhythm Guitar
E|--------------------------------------------------------|
B|--------------------------------------------------------|
G|------------------------------------------5-------3-----|
D|0---------------------------0-------------5-------3-----|
A|0---------------------------0-------------3-------1-----|
D|0---------------------------0---------------------------|
___________________________________________________________

Lead Guitar
E|--------------------------------------------------------|
B|--------------------------------------------------8---1o|
G|9---1o--1o--1o9---1o--1o--1o9---1o--1o--1o9---1o--------|
D|--7---7---7-----7---7---7-----7---7---7-----7---7---7---|
A|--------------------------------------------------------|
D|--------------------------------------------------------|

Rhythm Guitar
E|--------------------------------------------------------|
B|--------------------------------------------------------|
G|----------------------------3-------------5-------------|
D|0---------------------------3-------------5-------3-----|
A|0---------------------------1-------------3-------3-----|
D|0-------------------------------------------------3-----|
___________________________________________________________

Lead Guitar
E|--------------------------------------------------------|
B|--------------------------------------------------------|
G|9---1o--1o--1o9---1o--1o--1o9---1o--1o--1o9---1o--7-----|
D|--7---7---7-----7---7---7-----7---7---7-----7---7---7-1o|
A|--------------------------------------------------------|
D|--------------------------------------------------------|

Rhythm Guitar
E|--------------------------------------------------------|
B|--------------------------------------------------------|
G|------------------------------------------5-------3-----|
D|0---------------------------0-------------5-------3-----|
A|0---------------------------0-------------3-------1-----|
D|0---------------------------0---------------------------|
___________________________________________________________

Lead Guitar
E|--------------------------------------------------------|
B|--------------------------------------------------8---1o|
G|9---1o--1o--1o9---1o--1o--1o9---1o--1o--1o9---1o--------|
D|--7---7---7-----7---7---7-----7---7---7-----7---7---7---|
A|--------------------------------------------------------|
D|--------------------------------------------------------|

Rhythm Guitar
E|--------------------------------------------------------|
B|--------------------------------------------------------|
G|----------------------------3-------------5-------------|
D|0---------------------------3-------------5-------3-----|
A|0---------------------------1-------------3-------3-----|
D|0-------------------------------------------------3-----|
___________________________________________________________

Lead Guitar
E|--------------------------------------------------------|
B|8---1o--1o--1o8---1o--1o--1o8---1o--1o--1o8---1o--------|
G|--------------------------------------------------1o--9-|
D|--7---7---7-----7---7---7-----7---7---7-----7---7---7---|
A|--------------------------------------------------------|
D|--------------------------------------------------------|

Harmony Guitar
E|--------------------------------------------------------|
B|--------------------------------------------------------|
G|9---1o--1o--1o9---1o--1o--1o9---1o--1o--1o9---1o--7-----|
D|--7---7---7-----7---7---7-----7---7---7-----7---7---7-1o|
A|--------------------------------------------------------|
D|--------------------------------------------------------|

Rhythm Guitar
E|--------------------------------------------------------|
B|--------------------------------------------------------|
G|--------------------------------------------------------|
D|--------------------------------------------------------|
A|--------------------------------------------------------|
D|--------------------------------------------------------|
___________________________________________________________

Lead Guitar
E|--------------------------------------------------------8---|
B|8---1o--1o--1o8---1o--1o--1o8---1o--1o--1o8---1o--1o11------|
G|------------------------------------------------------------|
D|--7---7---7-----7---7---7-----7---7---7-----7---7-----7---7-|
A|------------------------------------------------------------|
D|------------------------------------------------------------|

Harmony Guitar
E|------------------------------------------------------------|
B|----------------------------------------------------8---1o--|
G|9---1o--1o--1o9---1o--1o--1o9---1o--1o--1o9---1o--1o--------|
D|--7---7---7-----7---7---7-----7---7---7-----7---7-----7---7-|
A|------------------------------------------------------------|
D|------------------------------------------------------------|

Rhythm Guitar
E|------------------------------------------------------------|
B|------------------------------------------------------------|
G|----------------------------3-3-3-3-3-3-3-5---5---5---------|
D|5-5-5-5-5-5-5-5-5-5-5-5-5-5-3-3-3-3-3-3-3-5---5---5-3-3-3-3-|
A|5-5-5-5-5-5-5-5-5-5-5-5-5-5-1-1-1-1-1-1-1-3---3---3-3-3-3-3-|
D|5-5-5-5-5-5-5-5-5-5-5-5-5-5-------------------------3-3-3-3-|
_______________________________________________________________

Lead Guitar
E|----------------------------------------------8---8-------------|
B|--------------1o--1o--1o--1o--1o----------------------11--11--11|
G|7---9---1o--7---7---7---7---7---7---9---1o--7---7---7---7---7---|
D|--7---7---7-----------------------7---7---7---------------------|
A|----------------------------------------------------------------|
D|----------------------------------------------------------------|

Rhythm Guitar
E|----------------------------------------------------------------|
B|----------------------------------------------------------------|
G|----------------------------------------------------------------|
D|0-0-0-0-0-0-0-0-0-0-0-0-0-0-0-0-0-0-0-0-0-0-0-3-3-3-3-3-3-3-3-3-|
A|0-0-0-0-0-0-0-0-0-0-0-0-0-0-0-0-0-0-0-0-0-0-0-3-3-3-3-3-3-3-3-3-|
D|0-0-0-0-0-0-0-0-0-0-0-0-0-0-0-0-0-0-0-0-0-0-0-3-3-3-3-3-3-3-3-3-|
___________________________________________________________________

Lead Guitar
E|----------------------------------------------------------------|
B|--------------1o--1o--1o--1o--1o8-------------------------------|
G|7---9---1o--7---7---7---7---7-----7-1o9-9-----9---9---9---9-1o9-|
D|--7---7---7-------------------------------7-7---7---7---7-------|
A|----------------------------------------------------------------|
D|----------------------------------------------------------------|

Rhythm Guitar
E|----------------------------------------------------------------|
B|----------------------------------------------------------------|
G|3-3-3-3-3-3-3-3-3-3-3-3-3-3-3-3-5-5-5-5-5-5-5-------------------|
D|3-3-3-3-3-3-3-3-3-3-3-3-3-3-3-3-5-5-5-5-5-5-5-3---3---3-5-5-5-5-|
A|1-1-1-1-1-1-1-1-1-1-1-1-1-1-1-1-3-3-3-3-3-3-3-3---3---3-5-5-5-5-|
D|----------------------------------------------3---3---3-5-5-5-5-|
___________________________________________________________________

Lead Guitar
E|----------------------------------------------8---8-------------|
B|--------------1o--1o--1o--1o--1o----------------------11--11--11|
G|7---9---1o--7---7---7---7---7---7---9---1o--7---7---7---7---7---|
D|--7---7---7-----------------------7---7---7---------------------|
A|----------------------------------------------------------------|
D|----------------------------------------------------------------|

Rhythm Guitar
E|----------------------------------------------------------------|
B|----------------------------------------------------------------|
G|--------------------------------5-5-5-5-5-5-5-5-5-5-5-5-5-5-5-5-|
D|0-0-0-0-0-0-0-0-0-0-0-0-0-0-0-0-5-5-5-5-5-5-5-5-5-5-5-5-5-5-5-5-|
A|0-0-0-0-0-0-0-0-0-0-0-0-0-0-0-0-3-3-3-3-3-3-3-3-3-3-3-3-3-3-3-3-|
D|0-0-0-0-0-0-0-0-0-0-0-0-0-0-0-0---------------------------------|
___________________________________________________________________

Lead Guitar
E|----------------------------------------------------------------|
B|--------------1o--1o--1o--1o--1o8-------------------------------|
G|7---9---1o--7---7---7---7---7-----7-1o9-9-----9---9---9---9-1o9-|
D|--7---7---7-------------------------------7-7---7---7---7-------|
A|----------------------------------------------------------------|
D|----------------------------------------------------------------|

Rhythm Guitar
E|----------------------------------------------------------------|
B|----------------------------------------------------------------|
G|3-3-3-3-3-3-3-3-3-3-3-3-3-3-3-3-2-2-2-2-2-2-2-5---5---5---------|
D|3-3-3-3-3-3-3-3-3-3-3-3-3-3-3-3-2-2-2-2-2-2-2-5---5---5-3-3-3-3-|
A|1-1-1-1-1-1-1-1-1-1-1-1-1-1-1-1-0-0-0-0-0-0-0-3---3---3-3-3-3-3-|
D|--------------------------------------------------------3-3-3-3-|
___________________________________________________________________

Lead Guitar
E|----------------------------------------------8---8-------------|
B|--------------1o--1o--1o--1o--1o----------------------11--11--11|
G|7---9---1o--7---7---7---7---7---7---9---1o--7---7---7---7---7---|
D|--7---7---7-----------------------7---7---7---------------------|
A|----------------------------------------------------------------|
D|----------------------------------------------------------------|

Rhythm Guitar
E|----------------------------------------------------------------|
B|----------------------------------------------------------------|
G|----------------------------------------------------------------|
D|0-0-0-0-0-0-0-0-0-0-0-0-0-0-0-0-0-0-0-0-0-0-0-3-3-3-3-3-3-3-3-3-|
A|0-0-0-0-0-0-0-0-0-0-0-0-0-0-0-0-0-0-0-0-0-0-0-3-3-3-3-3-3-3-3-3-|
D|0-0-0-0-0-0-0-0-0-0-0-0-0-0-0-0-0-0-0-0-0-0-0-3-3-3-3-3-3-3-3-3-|
___________________________________________________________________

Lead Guitar
E|----------------------------------------------------------------|
B|--------------1o--1o--1o--1o--1o8-------------------------------|
G|7---9---1o9-7---7---7---7---7-----7-1o9-9-----9---9---9---9-1o9-|
D|--7---7-----------------------------------7-7---7---7---7-------|
A|----------------------------------------------------------------|
D|----------------------------------------------------------------|

Rhythm Guitar
E|----------------------------------------------------------------|
B|----------------------------------------------------------------|
G|3-3-3-3-3-3-3-3-3-3-3-3-3-3-3-3-5-5-5-5-5-5-5-------------------|
D|3-3-3-3-3-3-3-3-3-3-3-3-3-3-3-3-5-5-5-5-5-5-5-3---3---3-5-5-5-5-|
A|1-1-1-1-1-1-1-1-1-1-1-1-1-1-1-1-3-3-3-3-3-3-3-3---3---3-5-5-5-5-|
D|----------------------------------------------3---3---3-5-5-5-5-|
___________________________________________________________________

Lead Guitar
E|----------------------------------------------8---8-------------|
B|--------------1o--1o--1o--1o--1o----------------------11--11--11|
G|7---9---1o--7---7---7---7---7---7---9---1o--7---7---7---7---7---|
D|--7---7---7-----------------------7---7---7---------------------|
A|----------------------------------------------------------------|
D|----------------------------------------------------------------|

Rhythm Guitar
E|----------------------------------------------------------------|
B|----------------------------------------------------------------|
G|--------------------------------5-5-5-5-5-5-5-5-5-5-5-5-5-5-5-5-|
D|0-0-0-0-0-0-0-0-0-0-0-0-0-0-0-0-5-5-5-5-5-5-5-5-5-5-5-5-5-5-5-5-|
A|0-0-0-0-0-0-0-0-0-0-0-0-0-0-0-0-3-3-3-3-3-3-3-3-3-3-3-3-3-3-3-3-|
D|0-0-0-0-0-0-0-0-0-0-0-0-0-0-0-0---------------------------------|
___________________________________________________________________

Lead Guitar
E|----------------------------------------------------------------|
B|--------------1o--1o--1o--1o--1o8-------------------------------|
G|7---9---1o9-7---7---7---7---7-----7-1o9-9-----9---9---9---9-1o9-|
D|--7---7-----------------------------------7-7---7---7---7-------|
A|----------------------------------------------------------------|
D|----------------------------------------------------------------|

Rhythm Guitar
E|----------------------------------------------------------------|
B|----------------------------------------------------------------|
G|3-3-3-3-3-3-3-3-3-3-3-3-3-3-3-3-2-2-2-2-2-2-2-5---5---5---------|
D|3-3-3-3-3-3-3-3-3-3-3-3-3-3-3-3-2-2-2-2-2-2-2-5---5---5-3-3-3-3-|
A|1-1-1-1-1-1-1-1-1-1-1-1-1-1-1-1-0-0-0-0-0-0-0-3---3---3-3-3-3-3-|
D|--------------------------------------------------------3-3-3-3-|
___________________________________________________________________

Lead Guitar
E|--------------------------------------------------------|
B|--------------------------------------------------------|
G|--------------------------------------------------------|
D|--------------------------------------------------------|
A|7---8---8---8-7---8---8---8-7---8---8---8-7---8---5---3-|
D|--------------------------------------------------------|

Rhythm Guitar
E|--------------------------------------------------------|
B|--------------------------------------------------------|
G|--------------------------------------------------------|
D|--------------------------------------------------------|
A|7---8---8---8-7---8---8---8-7---8---8---8-7---8---5---3-|
D|--------------------------------------------------------|
___________________________________________________________

Lead Guitar
E|--------------------------------------------------------|
B|--------------------------------------------------------|
G|--------------------------------------------------------|
D|--------------------------------------------------8---1o|
A|7---8---8---8-7---8---8---8-7---8---8---8-7---8---------|
D|--------------------------------------------------------|

Rhythm Guitar
E|--------------------------------------------------------|
B|--------------------------------------------------------|
G|--------------------------------------------------------|
D|--------------------------------------------------5---7-|
A|7---8---8---8-7---8---8---8-7---8---8---8-7---8---------|
D|--------------------------------------------------------|
___________________________________________________________

Lead Guitar
E|--------------------------------------------------------|
B|--------------------------------------------------------|
G|--------------------------------------------------------|
D|5---7---7---7-5---7---7---7-5---7---7---7-5---7---------|
A|--------------------------------------------------8---7-|
D|--------------------------------------------------------|

Rhythm Guitar
E|--------------------------------------------------------|
B|--------------------------------------------------------|
G|--------------------------------------------------------|
D|--------------------------------------------------------|
A|7---8---8---8-7---8---8---8-7---8---8---8-7---8---5---3-|
D|--------------------------------------------------------|
___________________________________________________________

Lead Guitar
E|--------------------------------------------------------|
B|--------------------------------------------------------|
G|--------------------------------------------------8---1o|
D|5---7---7---7-5---7---7---7-5---7---7---7-5---7---------|
A|--------------------------------------------------------|
D|--------------------------------------------------------|

Rhythm Guitar
E|--------------------------------------------------------|
B|--------------------------------------------------------|
G|--------------------------------------------------------|
D|--------------------------------------------------5---7-|
A|7---8---8---8-7---8---8---8-7---8---8---8-7---8---------|
D|--------------------------------------------------------|
___________________________________________________________

Lead Guitar
E|--------------------------------------------------------|
B|----------------------8---------------------------------|
G|5---7---7---7-5---7-------7-5---7---7---7-5---7---7---7-|
D|--------------------------------------------------------|
A|--------------------------------------------------------|
D|--------------------------------------------------------|

Harmony Guitar
E|--------------------------------------------------------|
B|--------------------------------------------------------|
G|--------------------------------------------------------|
D|7---8---8---8-7---8---8---8-7---8---8---8-7---8---8---8-|
A|--------------------------------------------------------|
D|--------------------------------------------------------|

Rhythm Guitar
E|--------------------------------------------------------|
B|--------------------------------------------------------|
G|--------------------------------------------------------|
D|5---5---5---5-5---5---5---5-5---5---5---5-5---5---5---5-|
A|5---5---5---5-5---5---5---5-5---5---5---5-5---5---5---5-|
D|5---5---5---5-5---5---5---5-5---5---5---5-5---5---5---5-|
__________________________________________________________

Lead Guitar
E|--------------------------------------------------------|
B|----------------------8---------------------------------|
G|5---7---7---7-5---7-------7-5---7---7---7-5---7---8-7-7-|
D|--------------------------------------------------------|
A|--------------------------------------------------------|
D|--------------------------------------------------------|

Harmony Guitar
E|--------------------------------------------------------|
B|--------------------------------------------------------|
G|--------------------------------------------------------|
D|7---8---8---8-7---8---8---8-7---8---8---8-7---8---1o8-8-|
A|--------------------------------------------------------|
D|--------------------------------------------------------|

Rhythm Guitar
E|--------------------------------------------------------|
B|--------------------------------------------------------|
G|--------------------------------------------------------|
D|8---8---8---8-8---8---8---8-0---0---0---0-0---0---3-3-3-|
A|8---8---8---8-8---8---8---8-0---0---0---0-0---0---3-3-3-|
D|8---8---8---8-8---8---8---8-0---0---0---0-0---0---3-3-3-|
__________________________________________________________

Lead Guitar
E|--------------------------------------------------------|
B|----------------------8---------------------------------|
G|5---7---7---7-5---7-------7-5---7---7---7-5---7---7---7-|
D|--------------------------------------------------------|
A|--------------------------------------------------------|
D|--------------------------------------------------------|

Harmony Guitar
E|--------------------------------------------------------|
B|--------------------------------------------------------|
G|--------------------------------------------------------|
D|7---8---8---8-7---8---8---8-7---8---8---8-7---8---8---8-|
A|--------------------------------------------------------|
D|--------------------------------------------------------|

Rhythm Guitar
E|--------------------------------------------------------|
B|--------------------------------------------------------|
G|--------------------------------------------------------|
D|5---5---5---5-5---5---5---5-5---5---5---5-5---5---5---5-|
A|5---5---5---5-5---5---5---5-5---5---5---5-5---5---5---5-|
D|5---5---5---5-5---5---5---5-5---5---5---5-5---5---5---5-|
___________________________________________________________

Lead Guitar
E|------------------------------------------------------------|
B|----------------------8-------------------------------------|
G|5---7---7---7-5---7-------7-5---7---7---7-5---7---7-8---5-5-|
D|------------------------------------------------------------|
A|------------------------------------------------------------|
D|------------------------------------------------------------|

Harmony Guitar
E|------------------------------------------------------------|
B|------------------------------------------------------------|
G|------------------------------------------------------------|
D|7---8---8---8-7---8---8---8-7---8---8---8-7---8---8-1o--8-8-|
A|------------------------------------------------------------|
D|------------------------------------------------------------|

Rhythm Guitar
E|------------------------------------------------------------|
B|------------------------------------------------------------|
G|------------------------------------------3---3---3---------|
D|8---8---8---8-8---8---8---8-0---0---0---0-3---3---3-3---3-3-|
A|8---8---8---8-8---8---8---8-0---0---0---0-1---1---1-3---3-3-|
D|8---8---8---8-8---8---8---8-0---0---0---0-----------3---3-3-|
_______________________________________________________________

Lead Guitar
E|--------------------------------------------------------|
B|--------------------------------------------------------|
G|9---1o--1o--1o9---1o--1o--1o9---1o--1o--1o9---1o--7-----|
D|--7---7---7-----7---7---7-----7---7---7-----7---7---7-1o|
A|--------------------------------------------------------|
D|--------------------------------------------------------|

Rhythm Guitar
E|--------------------------------------------------------|
B|--------------------------------------------------------|
G|------------------------------------------5-------3-----|
D|0---------------------------0-------------5-------3-----|
A|0---------------------------0-------------3-------1-----|
D|0---------------------------0---------------------------|
___________________________________________________________

Lead Guitar
E|--------------------------------------------------------|
B|--------------------------------------------------8---1o|
G|9---1o--1o--1o9---1o--1o--1o9---1o--1o--1o9---1o--------|
D|--7---7---7-----7---7---7-----7---7---7-----7---7---7---|
A|--------------------------------------------------------|
D|--------------------------------------------------------|

Rhythm Guitar
E|--------------------------------------------------------|
B|--------------------------------------------------------|
G|----------------------------3-------------5-------------|
D|0---------------------------3-------------5-------3-----|
A|0---------------------------1-------------3-------3-----|
D|0-------------------------------------------------3-----|
___________________________________________________________

Lead Guitar
E|--------------------------------------------------------|
B|8---1o--1o--1o8---1o--1o--1o8---1o--1o--1o8---1o--------|
G|--------------------------------------------------1o--9-|
D|--7---7---7-----7---7---7-----7---7---7-----7---7---7---|
A|--------------------------------------------------------|
D|--------------------------------------------------------|

Harmony Guitar
E|--------------------------------------------------------|
B|--------------------------------------------------------|
G|9---1o--1o--1o9---1o--1o--1o9---1o--1o--1o9---1o--7-----|
D|--7---7---7-----7---7---7-----7---7---7-----7---7---7-1o|
A|--------------------------------------------------------|
D|--------------------------------------------------------|

Rhythm Guitar
E|--------------------------------------------------------|
B|--------------------------------------------------------|
G|------------------------------------------5-------3-----|
D|0---------------------------0-------------5-------3-----|
A|0---------------------------0-------------3-------1-----|
D|0---------------------------0---------------------------|
___________________________________________________________

Lead Guitar
E|------------------------------------------------------8-|
B|8---1o--1o--1o8---1o--1o--1o8---1o--1o--1o8---1o--11----|
G|--------------------------------------------------------|
D|--7---7---7-----7---7---7-----7---7---7-----7---7---7---|
A|--------------------------------------------------------|
D|--------------------------------------------------------|

Harmony Guitar
E|--------------------------------------------------------|
B|--------------------------------------------------8---1o|
G|9---1o--1o--1o9---1o--1o--1o9---1o--1o--1o9---1o--------|
D|--7---7---7-----7---7---7-----7---7---7-----7---7---7---|
A|--------------------------------------------------------|
D|--------------------------------------------------------|

Rhythm Guitar
E|--------------------------------------------------------|
B|--------------------------------------------------------|
G|----------------------------3-------------5-------------|
D|0---------------------------3-------------5-------3-----|
A|0---------------------------1-------------3-------3-----|
D|0-------------------------------------------------3-----|
___________________________________________________________

Lead Guitar
E|----------------------------|
B|8---1o--1o--1o8---1o--1o--1o|
G|----------------------------|
D|--7---7---7-----7---7---7---|
A|----------------------------|
D|----------------------------|

Harmony Guitar
E|----------------------------|
B|----------------------------|
G|9---1o--1o--1o9---1o--1o--1o|
D|--7---7---7-----7---7---7---|
A|----------------------------|
D|----------------------------|

Rhythm Guitar
E|----------------------------|
B|----------------------------|
G|----------------------------|
D|7-7-7-7-7-7-7-1o1o1o1o1o1o1o|
A|7-7-7-7-7-7-7-1o1o1o1o1o1o1o|
D|7-7-7-7-7-7-7-1o1o1o1o1o1o1o|
_______________________________

Lead Guitar
E|--------------------------------------------------------|
B|--------------------------------------------------------|
G|--------------------------------------------------------|
D|--------------------------------------------------------|
A|7---8---8---8-7---8---8---8-7---8---8---8-7---8---5---3-|
D|--------------------------------------------------------|
[ Tab from: http://www.guitaretab.com/i/insomnium/91879.html ]
Rhythm Guitar
E|--------------------------------------------------------|
B|--------------------------------------------------------|
G|--------------------------------------------------------|
D|--------------------------------------------------------|
A|7---8---8---8-7---8---8---8-7---8---8---8-7---8---5---3-|
D|--------------------------------------------------------|
___________________________________________________________

Lead Guitar
E|--------------------------------------------------------|
B|--------------------------------------------------------|
G|--------------------------------------------------------|
D|--------------------------------------------------8---1o|
A|7---8---8---8-7---8---8---8-7---8---8---8-7---8---------|
D|--------------------------------------------------------|

Rhythm Guitar
E|--------------------------------------------------------|
B|--------------------------------------------------------|
G|--------------------------------------------------------|
D|--------------------------------------------------5---7-|
A|7---8---8---8-7---8---8---8-7---8---8---8-7---8---------|
D|--------------------------------------------------------|
___________________________________________________________

Lead Guitar
E|--------------------------------------------------------|
B|--------------------------------------------------------|
G|--------------------------------------------------------|
D|5---7---7---7-5---7---7---7-5---7---7---7-5---7---------|
A|--------------------------------------------------8---7-|
D|--------------------------------------------------------|

Rhythm Guitar
E|--------------------------------------------------------|
B|--------------------------------------------------------|
G|--------------------------------------------------------|
D|--------------------------------------------------------|
A|7---8---8---8-7---8---8---8-7---8---8---8-7---8---5---3-|
D|--------------------------------------------------------|
___________________________________________________________

Lead Guitar
E|--------------------------------------------------------|
B|--------------------------------------------------------|
G|--------------------------------------------------8---1o|
D|5---7---7---7-5---7---7---7-5---7---7---7-5---7---------|
A|--------------------------------------------------------|
D|--------------------------------------------------------|

Rhythm Guitar
E|--------------------------------------------------------|
B|--------------------------------------------------------|
G|--------------------------------------------------------|
D|--------------------------------------------------5---7-|
A|7---8---8---8-7---8---8---8-7---8---8---8-7---8---------|
D|--------------------------------------------------------|
___________________________________________________________

Lead Guitar
E|--------------------------------------------------------|
B|----------------------8---------------------------------|
G|5---7---7---7-5---7-------7-5---7---7---7-5---7---7---7-|
D|--------------------------------------------------------|
A|--------------------------------------------------------|
D|--------------------------------------------------------|

Harmony Guitar
E|--------------------------------------------------------|
B|--------------------------------------------------------|
G|--------------------------------------------------------|
D|7---8---8---8-7---8---8---8-7---8---8---8-7---8---8---8-|
A|--------------------------------------------------------|
D|--------------------------------------------------------|

Rhythm Guitar
E|--------------------------------------------------------|
B|--------------------------------------------------------|
G|--------------------------------------------------------|
D|5---5---5---5-5---5---5---5-5---5---5---5-5---5---5---5-|
A|5---5---5---5-5---5---5---5-5---5---5---5-5---5---5---5-|
D|5---5---5---5-5---5---5---5-5---5---5---5-5---5---5---5-|
__________________________________________________________

Lead Guitar
E|--------------------------------------------------------|
B|----------------------8---------------------------------|
G|5---7---7---7-5---7-------7-5---7---7---7-5---7---8-7-7-|
D|--------------------------------------------------------|
A|--------------------------------------------------------|
D|--------------------------------------------------------|

Harmony Guitar
E|--------------------------------------------------------|
B|--------------------------------------------------------|
G|--------------------------------------------------------|
D|7---8---8---8-7---8---8---8-7---8---8---8-7---8---1o8-8-|
A|--------------------------------------------------------|
D|--------------------------------------------------------|

Rhythm Guitar
E|--------------------------------------------------------|
B|--------------------------------------------------------|
G|--------------------------------------------------------|
D|8---8---8---8-8---8---8---8-0---0---0---0-0---0---3-3-3-|
A|8---8---8---8-8---8---8---8-0---0---0---0-0---0---3-3-3-|
D|8---8---8---8-8---8---8---8-0---0---0---0-0---0---3-3-3-|
__________________________________________________________

Lead Guitar
E|--------------------------------------------------------|
B|----------------------8---------------------------------|
G|5---7---7---7-5---7-------7-5---7---7---7-5---7---7---7-|
D|--------------------------------------------------------|
A|--------------------------------------------------------|
D|--------------------------------------------------------|

Harmony Guitar
E|--------------------------------------------------------|
B|--------------------------------------------------------|
G|--------------------------------------------------------|
D|7---8---8---8-7---8---8---8-7---8---8---8-7---8---8---8-|
A|--------------------------------------------------------|
D|--------------------------------------------------------|

Rhythm Guitar
E|--------------------------------------------------------|
B|--------------------------------------------------------|
G|--------------------------------------------------------|
D|5---5---5---5-5---5---5---5-5---5---5---5-5---5---5---5-|
A|5---5---5---5-5---5---5---5-5---5---5---5-5---5---5---5-|
D|5---5---5---5-5---5---5---5-5---5---5---5-5---5---5---5-|
___________________________________________________________

Lead Guitar
E|------------------------------------------------------------|
B|----------------------8-------------------------------------|
G|5---7---7---7-5---7-------7-5---7---7---7-5---7---7-8---5-5-|
D|------------------------------------------------------------|
A|------------------------------------------------------------|
D|------------------------------------------------------------|

Harmony Guitar
E|------------------------------------------------------------|
B|------------------------------------------------------------|
G|------------------------------------------------------------|
D|7---8---8---8-7---8---8---8-7---8---8---8-7---8---8-1o--8-8-|
A|------------------------------------------------------------|
D|------------------------------------------------------------|

Rhythm Guitar
E|------------------------------------------------------------|
B|------------------------------------------------------------|
G|------------------------------------------3---3---3---------|
D|8---8---8---8-8---8---8---8-0---0---0---0-3---3---3-3---3-3-|
A|8---8---8---8-8---8---8---8-0---0---0---0-1---1---1-3---3-3-|
D|8---8---8---8-8---8---8---8-0---0---0---0-----------3---3-3-|
_______________________________________________________________

Lead Guitar
E|----------------------------------------------------------------|
B|----------------------------------------------------------------|
G|----------------------------------------------------------------|
D|----------------------------------------------------5-----------|
A|------------------------------------------------7-------8---7---|
D|----------------------------------------------------------------|

Rhythm Guitar
E|----------------------------------------------------------------|
B|----------------------------------------------------------------|
G|------------------------------------------------5---5---5---5---|
D|------------------------------------------------5---5---5---5---|
A|0-0-0-0-0---0-0-0-0-----0-0-0-0-----0-0-0-0-----3---3---3---3---|
D|0-0-0-0-0---0-0-0-0-----0-0-0-0-----0-0-0-0---------------------|
___________________________________________________________________

Lead Guitar
E|----------------------------------------------------------------|
B|----------------------------------------------------------------|
G|------------------------------------------------5---------------|
D|8-----8-----5-----5-----7-----7---------------------5-----------|
A|------------------------------------8-----8-------------8---7---|
D|----------------------------------------------------------------|

Rhythm Guitar
E|----------------------------------------------------------------|
B|----------------------------------------------------------------|
G|------------3-3-3-3-3---------------------------5---5---5---5---|
D|5-5-5-5-5---3-3-3-3-3---3-3-3-3-3---3-3-3-3-3---5---5---5---5---|
A|5-5-5-5-5---1-1-1-1-1---3-3-3-3-3---3-3-3-3-3---3---3---3---3---|
D|5-5-5-5-5---------------3-3-3-3-3---3-3-3-3-3-------------------|
___________________________________________________________________

Lead Guitar
E|----------------------------------------------------------------|
B|------------------------5-----5-----6-----6---------------------|
G|------------------------------------------------5---------------|
D|7-----7-----5-----5---------------------------------5---8---7---|
A|----------------------------------------------------------------|
D|----------------------------------------------------------------|

Harmony Guitar
E|----------------------------------------------------------------|
B|----------------------------------------------------------------|
G|------------------------5-----5-----7-----7---------------------|
D|3-----3-----2-----2-----------------------------5---------------|
A|----------------------------------------------------5---8---7---|
D|----------------------------------------------------------------|

Rhythm Guitar
E|----------------------------------------------------------------|
B|----------------------------------------------------------------|
G|------------------------------------------------5---5---5---5---|
D|0-0-0-0-0---0-0-0-0-0---0-0-0-0-0---0-0-0-0-0---5---5---5---5---|
A|0-0-0-0-0---0-0-0-0-0---0-0-0-0-0---0-0-0-0-0---3---3---3---3---|
D|0-0-0-0-0---0-0-0-0-0---0-0-0-0-0---0-0-0-0-0-------------------|
___________________________________________________________________

Lead Guitar
E|----------------------------------------------------------------|
B|----------------------------------------------------------------|
G|7-----7-----------------5-----5---------------------------------|
D|------------8-----8-----------------7-----7-----5---8---7---5---|
A|----------------------------------------------------------------|
D|----------------------------------------------------------------|

Harmony Guitar
E|----------------------------------------------------------------|
B|----------------------------------------------------------------|
G|----------------------------------------------------------------|
D|8-----8-----5-----5-----7-----7---------------------5-----------|
A|------------------------------------8-----8-----7-------8---7---|
D|----------------------------------------------------------------|

Rhythm Guitar
E|----------------------------------------------------------------|
B|----------------------------------------------------------------|
G|------------3-3-3-3-3-------------------------------------------|
D|5-5-5-5-5---3-3-3-3-3---3-3-3-3-3---3-3-3-3-3---2---5---3---2---|
A|5-5-5-5-5---1-1-1-1-1---3-3-3-3-3---3-3-3-3-3---2---5---3---2---|
D|5-5-5-5-5---------------3-3-3-3-3---3-3-3-3-3---2---5---3---2---|
___________________________________________________________________

Lead Guitar
E|------------------------12------12----13----13------------------|
B|1o------1o----------------1o--1o----1o----1o----13------11--1o--|
G|--1o--1o----1o12--1o12----------------------------12--12--------|
D|----------------------------------------------------------------|
A|----------------------------------------------------------------|
D|----------------------------------------------------------------|

Harmony Guitar
E|----------------------------------------------------------------|
B|------------------------13------13----15----15------------------|
G|1o------1o--------------------------------------1212--121o--9---|
D|--12--12----1214--1214----12--12----12----12--------------------|
A|----------------------------------------------------------------|
D|----------------------------------------------------------------|

Rhythm Guitar
E|----------------------------------------------------------------|
B|----------------------------------------------------------------|
G|------------------------------------------------5-5---5-5---5-5-|
D|0-0---0-0---0-0---0-0---0-0---0-0---0-0---0-0---5-5---5-5---5-5-|
A|0-0---0-0---0-0---0-0---0-0---0-0---0-0---0-0---3-3---3-3---3-3-|
D|0-0---0-0---0-0---0-0---0-0---0-0---0-0---0-0-------------------|
___________________________________________________________________

Lead Guitar
E|1o------1o------------------------------------------------------|
B|--11--11----1111----11--13------13------------------------------|
G|------------------12------14--14----1414----14--12--15--14--12--|
D|------------------------------------------15--------------------|
A|----------------------------------------------------------------|
D|----------------------------------------------------------------|

Harmony Guitar
E|----------------------------------------------------------------|
B|11------11--------------1o------1o------------------------------|
G|--12--12----1212----12----1o--1o----1o1o----1o--9---12--1o--9---|
D|------------------12----------------------1o--------------------|
A|----------------------------------------------------------------|
D|----------------------------------------------------------------|

Rhythm Guitar
E|----------------------------------------------------------------|
B|----------------------------------------------------------------|
G|------------------------------------------------5-5---5-5---5-5-|
D|5-5---5-5---5-8---8-8---3-3---3-3---3-3---3-3---5-5---5-5---5-5-|
A|5-5---5-5---5-8---8-8---3-3---3-3---3-3---3-3---3-3---3-3---3-3-|
D|5-5---5-5---5-8---8-8---3-3---3-3---3-3---3-3-------------------|
___________________________________________________________________

Lead Guitar
E|------------------------12------12----13----13------------------|
B|1o------1o----------------1o--1o----1o----1o----13------11--1o--|
G|--1o--1o----1o12--1o12----------------------------12--12--------|
D|----------------------------------------------------------------|
A|----------------------------------------------------------------|
D|----------------------------------------------------------------|

Harmony Guitar
E|----------------------------------------------------------------|
B|------------------------13------13----15----15------------------|
G|1o------1o--------------------------------------1212--121o--9---|
D|--12--12----1214--1214----12--12----12----12--------------------|
A|----------------------------------------------------------------|
D|----------------------------------------------------------------|

Rhythm Guitar
E|----------------------------------------------------------------|
B|----------------------------------------------------------------|
G|------------------------------------------------5-5---5-5---5-5-|
D|0-0---0-0---0-0---0-0---0-0---0-0---0-0---0-0---5-5---5-5---5-5-|
A|0-0---0-0---0-0---0-0---0-0---0-0---0-0---0-0---3-3---3-3---3-3-|
D|0-0---0-0---0-0---0-0---0-0---0-0---0-0---0-0-------------------|
___________________________________________________________________

Lead Guitar
E|1o------1o------------------------------------------------------|
B|--11--11----1111----11--13------13------------------------------|
G|------------------12------14--14----1414----14--12--15--14--12--|
D|------------------------------------------15--------------------|
A|----------------------------------------------------------------|
D|----------------------------------------------------------------|

Harmony Guitar
E|----------------------------------------------------------------|
B|11------11--------------1o------1o------------------------------|
G|--12--12----1212----12----1o--1o----1o1o----1o--9---12--1o--9---|
D|------------------12----------------------1o--------------------|
A|----------------------------------------------------------------|
D|----------------------------------------------------------------|

Rhythm Guitar
E|----------------------------------------------------------------|
B|----------------------------------------------------------------|
G|----------------------------------------------------------------|
D|5-5---5-5---5-8---8-8---3-3---3-3---3-3---3-3---2---5---3---2---|
A|5-5---5-5---5-8---8-8---3-3---3-3---3-3---3-3---2---5---3---2---|
D|5-5---5-5---5-8---8-8---3-3---3-3---3-3---3-3---2---5---3---2---|
___________________________________________________________________

Lead Guitar
E|12------12------13------15------|
B|--------------------------------|
G|--141214--141214--141214--141214|
D|--------------------------------|
A|--------------------------------|
D|--------------------------------|

Rhythm Guitar
E|--------------------------------|
B|--------------------------------|
G|--------------------------------|
D|--------------------------------|
A|--------------------------------|
D|--------------------------------|
___________________________________

Lead Guitar
E|----------------------------------------------------------------|
B|1o--8-----------8-------------------------------1o--8-----------|
G|--------1o--9-------1o--9---1o--7---7---7---7-----------1o--9---|
D|----------------------------------------------------------------|
A|----------------------------------------------------------------|
D|----------------------------------------------------------------|

Rhythm Guitar
E|----------------------------------------------------------------|
B|----------------------------------------------------------------|
G|--------------------------------3---------------5---------------|
D|0---------------0-------3-------3---------------5-------3---5---|
A|0---------------0-------3-------1---------------3-------3---5---|
D|0---------------0-------3-------------------------------3---5---|
___________________________________________________________________

Lead Guitar
E|----------------------------------------------------------------|
B|------------------------8---1o------------------1o--8-----------|
G|7---9---1o--7---9---1o----------7---7---7---7-----------1o--9---|
D|----------------------------------------------------------------|
A|----------------------------------------------------------------|
D|----------------------------------------------------------------|

Rhythm Guitar
E|----------------------------------------------------------------|
B|----------------------------------------------------------------|
G|----------------5---------------3---------------2-------5-------|
D|0---------------5---------------3---------------2-------5---3---|
A|0---------------3---------------1---------------0-------3---3---|
D|0-----------------------------------------------------------3---|
___________________________________________________________________

Lead Guitar
E|----------------------------------------------8---8-------------|
B|--------------1o--1o--1o--1o--1o----------------------11--11--11|
G|7---9---1o--7---7---7---7---7---7---9---1o--7---7---7---7---7---|
D|--7---7---7-----------------------7---7---7---------------------|
A|----------------------------------------------------------------|
D|----------------------------------------------------------------|

Rhythm Guitar
E|----------------------------------------------------------------|
B|----------------------------------------------------------------|
G|----------------------------------------------------------------|
D|0-0-0-0-0-0-0-0-0-0-0-0-0-0-0-0-0-0-0-0-0-0-0-3-3-3-3-3-3-3-3-3-|
A|0-0-0-0-0-0-0-0-0-0-0-0-0-0-0-0-0-0-0-0-0-0-0-3-3-3-3-3-3-3-3-3-|
D|0-0-0-0-0-0-0-0-0-0-0-0-0-0-0-0-0-0-0-0-0-0-0-3-3-3-3-3-3-3-3-3-|
___________________________________________________________________

Lead Guitar
E|----------------------------------------------------------------|
B|--------------1o--1o--1o--1o--1o8-------------------------------|
G|7---9---1o--7---7---7---7---7-----7-1o9-9-----9---9---9---9-1o9-|
D|--7---7---7-------------------------------7-7---7---7---7-------|
A|----------------------------------------------------------------|
D|----------------------------------------------------------------|

Rhythm Guitar
E|----------------------------------------------------------------|
B|----------------------------------------------------------------|
G|3-3-3-3-3-3-3-3-3-3-3-3-3-3-3-3-5-5-5-5-5-5-5-------------------|
D|3-3-3-3-3-3-3-3-3-3-3-3-3-3-3-3-5-5-5-5-5-5-5-3---3---3-5-5-5-5-|
A|1-1-1-1-1-1-1-1-1-1-1-1-1-1-1-1-3-3-3-3-3-3-3-3---3---3-5-5-5-5-|
D|----------------------------------------------3---3---3-5-5-5-5-|
___________________________________________________________________

Lead Guitar
E|----------------------------------------------8---8-------------|
B|--------------1o--1o--1o--1o--1o----------------------11--11--11|
G|7---9---1o--7---7---7---7---7---7---9---1o--7---7---7---7---7---|
D|--7---7---7-----------------------7---7---7---------------------|
A|----------------------------------------------------------------|
D|----------------------------------------------------------------|

Rhythm Guitar
E|----------------------------------------------------------------|
B|----------------------------------------------------------------|
G|--------------------------------5-5-5-5-5-5-5-5-5-5-5-5-5-5-5-5-|
D|0-0-0-0-0-0-0-0-0-0-0-0-0-0-0-0-5-5-5-5-5-5-5-5-5-5-5-5-5-5-5-5-|
A|0-0-0-0-0-0-0-0-0-0-0-0-0-0-0-0-3-3-3-3-3-3-3-3-3-3-3-3-3-3-3-3-|
D|0-0-0-0-0-0-0-0-0-0-0-0-0-0-0-0---------------------------------|
___________________________________________________________________

Lead Guitar
E|----------------------------------------------------------------|
B|--------------1o--1o--1o--1o--1o8-------------------------------|
G|7---9---1o9-7---7---7---7---7-----7-1o9-9-----9---9---9---9-1o9-|
D|--7---7-----------------------------------7-7---7---7---7-------|
A|----------------------------------------------------------------|
D|----------------------------------------------------------------|

Rhythm Guitar
E|----------------------------------------------------------------|
B|----------------------------------------------------------------|
G|3-3-3-3-3-3-3-3-3-3-3-3-3-3-3-3-2-2-2-2-2-2-2-5---5---5---------|
D|3-3-3-3-3-3-3-3-3-3-3-3-3-3-3-3-2-2-2-2-2-2-2-5---5---5-3-3-3-3-|
A|1-1-1-1-1-1-1-1-1-1-1-1-1-1-1-1-0-0-0-0-0-0-0-3---3---3-3-3-3-3-|
D|--------------------------------------------------------3-3-3-3-|
___________________________________________________________________

Lead Guitar
E|----------------------------------------------8---8-------------|
B|--------------1o--1o--1o--1o--1o----------------------11--11--11|
G|7---9---1o--7---7---7---7---7---7---9---1o--7---7---7---7---7---|
D|--7---7---7-----------------------7---7---7---------------------|
A|----------------------------------------------------------------|
D|----------------------------------------------------------------|

Rhythm Guitar
E|----------------------------------------------------------------|
B|----------------------------------------------------------------|
G|----------------------------------------------------------------|
D|0-0-0-0-0-0-0-0-0-0-0-0-0-0-0-0-0-0-0-0-0-0-0-3-3-3-3-3-3-3-3-3-|
A|0-0-0-0-0-0-0-0-0-0-0-0-0-0-0-0-0-0-0-0-0-0-0-3-3-3-3-3-3-3-3-3-|
D|0-0-0-0-0-0-0-0-0-0-0-0-0-0-0-0-0-0-0-0-0-0-0-3-3-3-3-3-3-3-3-3-|
___________________________________________________________________

Lead Guitar
E|----------------------------------------------------------------|
B|--------------1o--1o--1o--1o--1o8-------------------------------|
G|7---9---1o9-7---7---7---7---7-----7-1o9-9-----9---9---9---9-1o9-|
D|--7---7-----------------------------------7-7---7---7---7-------|
A|----------------------------------------------------------------|
D|----------------------------------------------------------------|

Rhythm Guitar
E|----------------------------------------------------------------|
B|----------------------------------------------------------------|
G|3-3-3-3-3-3-3-3-3-3-3-3-3-3-3-3-5-5-5-5-5-5-5-------------------|
D|3-3-3-3-3-3-3-3-3-3-3-3-3-3-3-3-5-5-5-5-5-5-5-3---3---3-5-5-5-5-|
A|1-1-1-1-1-1-1-1-1-1-1-1-1-1-1-1-3-3-3-3-3-3-3-3---3---3-5-5-5-5-|
D|----------------------------------------------3---3---3-5-5-5-5-|
___________________________________________________________________

Lead Guitar
E|----------------------------------------------8---8-------------|
B|--------------1o--1o--1o--1o--1o----------------------11--11--11|
G|7---9---1o--7---7---7---7---7---7---9---1o--7---7---7---7---7---|
D|--7---7---7-----------------------7---7---7---------------------|
A|----------------------------------------------------------------|
D|----------------------------------------------------------------|

Rhythm Guitar
E|----------------------------------------------------------------|
B|----------------------------------------------------------------|
G|--------------------------------5-5-5-5-5-5-5-5-5-5-5-5-5-5-5-5-|
D|0-0-0-0-0-0-0-0-0-0-0-0-0-0-0-0-5-5-5-5-5-5-5-5-5-5-5-5-5-5-5-5-|
A|0-0-0-0-0-0-0-0-0-0-0-0-0-0-0-0-3-3-3-3-3-3-3-3-3-3-3-3-3-3-3-3-|
D|0-0-0-0-0-0-0-0-0-0-0-0-0-0-0-0---------------------------------|
___________________________________________________________________

Lead Guitar
E|----------------------------------------------------------------|
B|--------------1o--1o--1o--1o--1o8-------------------------------|
G|7---9---1o9-7---7---7---7---7-----7-1o9-9-----9---9---9---9-1o9-|
D|--7---7-----------------------------------7-7---7---7---7-------|
A|----------------------------------------------------------------|
D|----------------------------------------------------------------|

Rhythm Guitar
E|----------------------------------------------------------------|
B|----------------------------------------------------------------|
G|3-3-3-3-3-3-3-3-3-3-3-3-3-3-3-3-2-2-2-2-2-2-2-5---5---5---------|
D|3-3-3-3-3-3-3-3-3-3-3-3-3-3-3-3-2-2-2-2-2-2-2-5---5---5-3-3-3-3-|
A|1-1-1-1-1-1-1-1-1-1-1-1-1-1-1-1-0-0-0-0-0-0-0-3---3---3-3-3-3-3-|
D|--------------------------------------------------------3-3-3-3-|
___________________________________________________________________

Lead Guitar
E|-------|
B|-------|
G|7------|
D|-------|
A|-------|
D|-------|

Rhythm Guitar
E|-------|
B|-------|
G|-------|
D|0------|
A|0------|
D|0------|
Related for Mortal Share tab
Mortal Share chords by Insomnium