Song name
# A B C D E F G H I J K L M N O P Q R S T U V W X Y Z

Inspection 12 - Labels Are For Cans tab

Band-Inspection 12
Song-Labels are for cans
Album- Get Rad
E-mail- Greenday_rhcp2002@yahoo.co.uk
Tabbed-Greenday2003
Any corrections and comments welcome

INTRO
|-------------------------------------------------------------|
|-------------------------------------------------------------|
|---------9-7-9----------9-7-9---------9-7-9-7--------9-7-9---|
|-7xxxx-7/9-7-9-7-xxxx-7/9-7-9-7xxxx-7/9-7-9-7-xxxx-7/9-7-9-7-|
|-7xxxx-5/7-5-7-7-xxxx-5/7-5-7-7xxxx-5/7-5-7-5-xxxx-5/7-5-7-7-|
|-5xxxx---------5-xxxx---------5xxxx-----------xxxx---------5-|x1


|----------------------------------------------------|
|----------------------------------------------------|
|--------9-7-9-7--------9-7-9----------9-7-9-7-9-7-9-|
|-xxxx-7/9-7-9-7-xxxx-7/9-7-9-7-xxxx-7/9-7-9-7-9-7-9-|
|-xxxx-5/7-5-7-5-xxxx-5/7-5-7-7-xxxx-5/7-5-7-5-7-5-7-|
|-xxxx-----------xxxx---------5-xxxx-----------------|x1


|-----------------------------------|
|-----------------------------------|
|----------9-7-9-7----------9-7-9---|
|-777777-7/9-7-9-7-777777-7/9-7-9-7-|
|-777777-5/7-5-7-5-777777-5/7-5-7-7-|
|-555555-----------555555---------5-|x3
pm......           ......

|-------------------------|
|-------------------------|
|----------9-7-9-7-9-7-99-|
|-777777-7/9-7-9-7-9-7-99-|
|-777777-5/7-5-7-5-7-5-77-|
|-555555------------------|x1
pm......

Bass

|---------------------------------------------------------|
|---------------------------------------------------------|
|-----------9-9999999-----------7777777----------99999999-|
|-7-7777777-9-9999999--77777777-7777777-77777777-99999999-|
|-7-7777777-7-7777777--77777777-5555555-77777777-77777777-|
|-5-5555555------------55555555---------55555555----------|x1
pm  .......   .....
|-------------------------------------------------|
|-------------------------------------------------|
|-9999-9999-7777-7777-----------9999-9999-7---9-7-|
|-9999-9999-7777-7777-7777-7777-9999-9999-7---9-7-|
|-7777-7777-5555-5555-7777-7777-7777-7777-5-------|
|---------------------5555-5555-------------------|x1

Pre metela section-Brackets after metal section only
|--------------------------------------------------------------------|
|--------------------------------------------------------------------|
|------7777------7777------9999-9999-7777------7777------7--7-7-7----|
|-7777-7777-7777-7777-7777-9999-9999-7777-7777-7777-7777-7--7-7-7-(7)|
|-7777-5555-7777-5555-7777-7777-7777-5555-7777-5555-7777-5--5-5-5-(7)|
|-5555------5555------5555----------------5555------5555----------(5)|x1

metal section-Little like shred the notes in ()
|-------------------------------------------|
|-------------------------------------------|
|------------7---7----------4ph-----(9)-7-9-|
|-7-7-777777-7-7-7-7-(7)-(2)----(7)-(9)-7-9-|
|-7-7-777777-5-7-5-7-(7)-(2)----(7)-(7)-5-7-|
|-5-5-555555---5---5-(5)-(0)----(5)---------|

Post metal section
|----------------------|
|----------------------|
|---------99999999-9-7-|
|-7777777-99999999-9-7-|
|-7777777-77777777-----|
|-5555555--------------|

Play pre metal section again

then-listen for the scratches
|---------------------------|
|---------------------------|
|---------9-9---------------|
|-2-2-9-9-9-9---------------|
|-2-2-9-9-7-7-5-7-5---------|
|-0-0-7-7-----------9-7-5-0-|x3

|---------------|
|---------------|
|---------9-9---|
|-2-2-9-9-9-9-7-|
|-2-2-9-9-7-7-7-|
|-0-0-7-7-----5-|x1

bass

|--------------------------------------------|
|--------------------------------------------|
|---------1111111111111111-99999999-77777777-|
|---------1111111111111111-99999999-77777777-|
|-(/////)--9-9-9-9-9-9-9-9-77777777-55555555-|
|-(/////)------------------------------------|x6 () only once


Pre metal section, end on D
And your done
Tap to rate this tab
# A B C D E F G H I J K L M N O P Q R S T U V W X Y Z