Song name
# A B C D E F G H I J K L M N O P Q R S T U V W X Y Z

Inspection 12 - Photograph tab

Inspection 12- Photograph
From Their CD: In Recovery
Tabbed by: Dan McLintock

  INTRO/VERSE 1(Repeat X3) (Guitar 2: Open A the 3rd and 4th time through)
E-----------------------------------------------------------------------|
B-----------------------------------------------------------------------|
G-----------------9----------------------7--6---------------------------|
D---6--7----6--7------7----6--7---6--7---------(x3 then...)-------------|
A-0--0----0--0--0---0----5--5---5--5--5----5----------------------------|
5-----------------------------------------------------------------------|

E---------------------------------------------------------------------|
B------------------10-10-10-10----------------------------------------|
G-7777777777777777-11-11-11-11--9-9-9-9-----------7-7-7-7-------------|
D-7777777777777777-11-11-11-11--9-9-9-9--7-7-7-7--7-7-7-7-------------|
A-5555555555555555--9--9--9--9--7-7-7-7--7-7-7-7--5-5-5-5-------------|
E----------------------------------------5-5-5-5----------------------|


E------------------------------------------------------------------------|
B-3-3-3-3--3-3-3-3-------------------------------------------------------|
G-4-4-4-4--2-2-2-2--1-1-1-1------------------------------------9---------|
D-4-4-4-4--4-4-4-4--2-2-2-2----------------------------------------------|
A-2-2-2-2--0-0-0-0--2-2-2-2----------------------------7--7-xx7----------|
E-------------------0-0-0-0--4-4-4-4-4-4-4-4-xxxx-4--5-------------------|

E-----------------------------------------------------------------------------------------------0------------|
B-------------------------------------------------------------------------------------------2-3---3-2-0------|
G----------9-11-9-------------14--13--9----------------9-------------9-11-9----------------------------------|
D--------------------7--7-------------------------------------------------------7-7-7777---------------------|
A---7--7-xx7--9-7----4--5--xx-12--11--7----------7-7-xx7------7-7--xx7--9-7---xx4-5-5555---------------------|
E-xx4--5-----------xx------------------------xxxx4-5--------xx4-5--------------------------------------------|


  CHORUS
E-----------------------------------------------------------------------|
B----------------------------------------------3-3-3--3-3---------------|
G------------9-9-9--9-9------------7-7-7--7-7--4-4-4--4-4-2-2-2--2-2----|
D-7-7-7--7-7-9-9-9--9-9-7-7-7--7-7-7-7-7--7-7--4-4-4--4-4-4-4-4--4-4----|
A-7-7-7--7-7-7-7-7--7-7-7-7-7--7-7-5-5-5--5-5--2-2-2--2-2-4-4-4--4-4----|
E-5-5-5--5-5------------5-5-5--5-5------------------------2-2-2--2-2----|

E----------------------------------------------------------------------------------------------------------|
B----------------------------------------------------------------------------------------------------------|
G------------------------------------9-9-9--9-9------------7-7-7--7-7--------------------------------------|
D-5-5-5--5-5--5-5-5--5-5--7-7-7--7-7-9-9-9--9-9-7-7-7--7-7-7-7-7--7-7--------------------------------------|
A-5-5-5--5-5--5-5-5--5-5--7-7-7--7-7-7-7-7--7-7-7-7-7--7-7-5-5-5--5-5--------------------------------------|
E-3-3-3--3-3--3-3-3--3-3--5-5-5--5-5------------5-5-5--5-5-------------------------------------------------|

E---------------------------------------------------------------------------------------------------------|
B--------------------------5-----------x------------------------------------------------------------------|
G-4-4-4-4-4-4-6-6-6-6-6-6--7-----------x--(INTRO RIFF ONCE)-----------------------------------------------|
D-4-4-4-4-4-4-7-7-7-7-7-7--7-----------x------------------------------------------------------------------|
A-2-2-2-2-2-2-4-4-4-4-4-4--5-----------x------------------------------------------------------------------|
E---------------------------------------------------------------------------------------------------------|
   ("...This faded...")


  VERSE 2(Repeat x 3)
E---------------------------------------------------------------------------------------------------------|
B---------------------------------------------------------------------------------------------------------|
G---------------7-7-7--7-7-7-(6)(7)(6)--------------------------------------------------------------------|
D-7-7-7--7-7-7--7-7-7--7-7-7------------------------------------------------------------------------------|
A-7-7-7--7-7-7--5-5-5--5-5-5--7--9--7---------------------------------------------------------------------|
E-5-5-5--5-5-5--------------------------------------------------------------------------------------------|

E----------------------------------------------------------------------------------------------|
B-----------------------------------------------------3-3-3--3-3-------------------------------|
G11-11-11--11-11--9-9-9--9-9--------------7-7-7--7-7--4-4-4--4-4-------------------------------|
D11-11-11--11-11--9-9-9--9-9--7-7-7--7-7--7-7-7--7-7--4-4-4--4-4-------------------------------|
A-9--9--9---9--9--7-7-7--7-7--7-7-7--7-7--5-5-5--5-5--2-2-2--2-2-------------------------------|
E-----------------------------5-5-5--5-5-------------------------------------------------------|
   ("...Broke  in two ways..")


E-------------------------------------------------------------------------------------------------|
B-3-3-3--3-3--------------------------------------------------------------------------------------|
G-------------------------------------------------7-7-7--7-7--9-9-9-9-9-9-9-----------------------|
D-4-4-4--4-4--2-2-2--2-2--2--2--4--4--5-5-5--5-5--7-7-7--7-7--9-9-9-9-9-9-9--7--------------------|
A-0-0-0--0-0--2-2-2--2-2--2--2--5--5--5-5-5--5-5--5-5-5--5-5--7-7-7-7-7-7-7--7--------------------|
E-------------0-0-0--0-0--0--0--2--2--3-3-3--3-3-----------------------------5--5--5--5--5--------|


  BRIDGE
E--------------------------------------------------------------------------------------------------------|
B-2-2-2-2--5-5-5-5--3-3-3-3--3-3-3-3----------6-6-6-6--3-3-3-3-------------------------------------------|
G-2-2-2-2--6-6-6-6--4-4-4-4--2-2-2-2-2-2-2-2--6-6-6-6--4-4-4-4-------------------------------------------|
D-2-2-2-2--5-5-5-5--4-4-4-4--3-3-3-3-4-4-4-4--6-6-6-6--4-4-4-4--4---2------------------------------------|
A-0-0-0-0--0-0-0-0--2-2-2-2--2-2-2-2-4-4-4-4--4-4-4-4--2-2-2-2--4---2------------------------------------|
E------------------------------------2-2-2-2--------------------2---0------------------------------------|
  ("I won't be a martyr...")

(CHORUS)

I got this tab from the Inspection 12 website www.inspection12.com
Tap to rate this tab
# A B C D E F G H I J K L M N O P Q R S T U V W X Y Z