Guitaretab - guitar tabs
Song name
# A B C D E F G H I J K L M N O P Q R S T U V W X Y Z

Inspection 12 - Elegy tab

Dropped D Tuning

 INTRO
E-----------------------------------------------------------------------|
B-----------------------------------------------------------------------|
G-----------------------------------------------------------------------|
D-676----4-4--4-4--4-4---676----0-0--0-0--0-0--676----2-2--2-2--2-2-----|
A----7-4-4-4--4-4--4-4------7-0-0-0--0-0--0-0-----7-2-2-2--2-2--2-2-----|
D--------4-4XX4-4XX4-4XX--------0-0XX0-0XX0-0XX-------2-2XX2-2XX2-2XX---|

E------------------------------------------------------------------------------------|
B------------------------------------------------------------------------------------|
G--------2-222-----2-4---------------------------------------------------------------|
D-676----2-222-0-2-2-4--4-4--4-4--4-4---676----0-0--0-0--0-0--676----2-2--2-2--2-2---|
A----7-2-0-000-0-2-0-2--4-4--4-4--4-4------7-0-0-0--0-0--0-0-----7-2-2-2--2-2--2-2---|
D--------------0-2------4-4XX4-4XX4-4XX--------0-0XX0-0XX0-0XX-------2-2XX2-2XX2-2XX-|


 ( )=Guitar 2
E--------------------------------------(0)(2)--------------------------------------|
B--------------------------------(0)(2)--------------------------------------------|
G--------2-222-------------(1)(2)-1--2--4--6------(6)-(4)-(4)-(1)-(2)-(2)-(1)------|
D-676----2-222---(0)(2)(4)--2--4-------------------7---6---6---2---4---0---2-(4)---|
A----7-2-0-000--0-2--4--5-----------------------------------------------------5----|
D----------------------------------------------------------------------------------|


 VERSE 1 (Acoustic)
E-----------------------------------------------------------------------------------------------------------------|
B-----------------------------------------------------------------------------------------------------------------|
G-----------------------------------------------------------------------------------------------------------------|
D--4-4-4-4-4-4-4-4-4-4-4-4-4-4-4-4-4-4-4-4-4-4-4-4-4-4-4-4-4-4-4-4-4-4-4-4-4-4-4-4-4-4-4-2-2-2-2-2-2-2-2-2-2-2-2--|
A-------------------------------------------------------2-2-2-2---------------------------------0-0-0-0-0-0-0-0---|
D-4-4-4-4-4-4-4-4-0-0-0-2-2-2-2-4-4-4-4-4-4-4-4-0-0-0-0---------4-4-4-4-4-4-4-4-0-0-0-0-2-2-2-2-------------------|

E-------------------------------|
B-------------------------------|
G-------------------------------|
D--4-4-4-4-4-4-4-4--------------|
A-2-2-2-2-4-4-4-4---------------|
D-------------------------------|


 VERSE 1 (Electric) *=Harmonics
E---------------------------------------------------------------------------------------|
B---------------------------------------------------------------------------------------|
G---------------------------------------------------------------------------------------|
D---------------------------------------------------------------------------------------|
A----------------------------------------------7777777777777777-------------------------|
D-4-4-5---(Repeat x 3 then...)-4444444444444444----------------4444444444444444---------|
  * * *
************************************************


 VERSE 2 (Guitar 1)
E------------------------------------------------------------------------------|
B------------------------------------------------------------------------------|
G-4-6------6-----6-----6-----2-----2------4-----4---4-6------6-----6-----6-----|
D-4-4-4444-4-444-4-444-44-00-0-000-0-0-22-2-222-2-2-4-4-4444-4-444-4-444-44----|
A------------------------------------------------------------------------------|
D------------------------------------------------------------------------------|

[ Tab from: http://www.guitaretab.com/i/inspection-12/153609.html ]
 VERSE 2 (Cont'd)
E----------------------------------------------------------------------------------------------------------------|
B----------------------------------------------------------------------------------------------------------------|
G----2-----2------4-----4---1-2------2-----2-----2---------------------------------------------------------------|
D-00-0-000-0-0-22-2-222-2-2-4-4-4444-4-444-4-444-4-4----4-----4------6-----6---7-7-7-7-7-7-7-7-7-----------------|
A----------------------------------------------------55-5-555-5-5-77-7-777-7-7-7-7-7-7-7-7-7-7-7-----------------|
D----------------------------------------------------------------------------------------------------------------|


 VERSE 2 (Guitar 2)
E------------------------------------------------------------------------------------------|
B------------------------------------------------------------------------------------------|
G------------------------------------------------------------------------------------------|
D-7-7-7-7-7-7-7-7-7-7-7-7-7-7-7-7-7-7-7-7-7-7-7-7-7-7-7-7-7-7-7-7-7-7-7-7-7-7-7-7-7--------|
A-------------------------------5-5-5-5-5-5-5-5-5-5-5-5-5-5-5-5-5-5-5-5-5-5-5-5-5-5--------|
D------------------------------------------------------------------------------------------|


 CHORUS
E-----------------------------------------------------------------------|
B-------------------------------------5---------------------------------|
G-9---7---6---6---6---6---9---7---6---6-----------7---4---6-------------|
D-7---7---7---9---7---6---7---7---7---6---6---4---7---2---4--(6)--------|
A-5---5---5---0---0---0---5---5---5---4---4---4---5---2---4---7---------|
D-0---0---0---------------0---0---0-------4---4---0---2---4-------------|


 BRIDGE ( )= Only after second chorus
E-----------------------------------------------------------------------|
B-----------------------------------------------------------------------|
G-----------------------------------------------------------------------|
D-4-4-4-4--4-4-4-4--4-4--0-0-0-0--2-(2-2-2--2-2)------------------------|
A-4-4-4-4--4-4-4-4--4-4--0-0-0-0--2-(2-2-2--2-2)------------------------|
D-4-4-4-4--4-4-4-4--4-4--0-0-0-0--2-(2-2-2--2-2)------------------------|


 VERSE 3
E-----------------------------------------------------------------------|
B-----------------------------------------------------------------------|
G----6------4------1------242-(Repeat x 3 then)-------------------------|
D-7-7-7--6-6-6--2-2-2--4-4----------------------------------------------|
A-----------------------------------------------------------------------|
D-----------------------------------------------------------------------|

(CHORUS)


(BRIDGE) x 4 then...

E-----------------------------------------------------------------------|
B----------------------------------10-10-10-10-10-10-10-10--------------|
G-2-2-2-2-2-2-2-4-6-6-6-6-6-6-6-6---------------------------------------|
D-2-2-2-2-2-2-2-4-6-6-6-6-6-6-6-6---7--7--7--7--7--7--7--7--------------|
A-0-0-0-0-0-0-0-2-4-4-4-4-4-4-4-4---------------------------------------|
D-----------------------------------------------------------------------|


OUTRO (Guitar 2)
E------------------------------------------------------------------------------------------------------------------------------------------------------------|
B-10-10-10-10-10-10-10-10-10-10-10-10--8-10--8-4-6-6-6-6-6-6-6-6-6-6-6-6-4-6-4-------------------------------------------------------------------------------|
G------------------------------------------------------------------------------6-7-7-7-7-7-7-7-7-6-6-6-6-6-6-6-6-4-4-4-4-4-4-4-4-----------------------------|
D--7--7--7--7--7--7--7--7--7--7--7--7--6--7--6-2-4-4-4-4-4-4-4-4-4-4-4-4-2-4-2-------------------------------------------------------------------------------|

Till Fade)----------|
D------------------------------------------------------------------------------------------------------------------------------------------------------------|

 OUTRO (Guitar 1)
E-------------------------------------------------------------------------------------------------------------------------------------------------------------|
B10-10-10-10-10-10-10-10-10-10-10-----------7-7-7-7-7-7-7-7-7-7-7-7---------3-3-3-3-3-3-3-3-3-3-3-3-2-2-2-2---------------------------------------------------|
G-------------------------------------------------------------------------------------------------------------------------------------------------------------|
D11-11-11-11-11-11-11-11-11-11-11-----------7-7-7-7-7-7-7-7-7-7-7-7---------4-4-4-4-4-4-4-4-4-4-4-4-2-2-2-2-9-9-9-9-9-9-9-9-9-9-9-9-9-9-9---------------------|

Till Fade)-|
D-------------------------------------------------------------------------------------------------------------------------------------------------------------|
Related for Elegy tab