Song name
# A B C D E F G H I J K L M N O P Q R S T U V W X Y Z

Inspection 12 - Doppelganger tab

VERSE (repeat 3 times)
E-----------------------------------------------------------------------|
B-----------------------------------------------------------------------|
G---------------6--6--6--6--3--3--3--3--4--4--4--4----------------------|
D---4--4--4--4--6--6--6--6--4--4--4--4--4--4--4--4----------------------|
A---4--4--4--4--4--4--4--4--1--1--1--1--2--2--2--2----------------------|
E---2--2--2--2----------------------------------------------------------|


                                                    PRE-CHORUS
E-----------------------------------------------------------------------|
B---------------------------------------------------6-------------------|
G---------------------------------------------------6-------------------|
D---------------------------------------------------6-------------------|
A---------------------------------------------------4--4--4--4--4--4----|
E-----------------------------------------------------------------------|

E-----------------------------------------------------------------------|
B------7--------------------6--------------------7--7--7--6-------------|
G------8--------------------6--------------------8--8--8--6-------------|
D------8--------------------6--------------------8--8--8--6-------------|
A---4--6--6--6--6--6--6--6--4--4--4--4--4--4--4--6--6--6--4--4--4--4----|
E-----------------------------------------------------------------------|

E-----------------------------------------------------------------------|
B------------7--------------------4--4--4-------------------------------|
G------------8--------------------4--4--4-------------------------------|
D------------8--------------------4--4--4-------------------------------|
A---4--4--4--6--6--6--6--6--6--6--2--2--2-------------------------------|
E-----------------------------------------------------------------------|


                                  CHORUS (Guitar 1)
E-----------------------------------------------------------------------|
B-----------------------------------------------------------------------|
G---------------------------------11--11--11--11--11--11--11--11--8-----|
D-----------------------------------------------------------------------|
A---------------------------------9---9---9---9---9---9---9---9---6-----|
E-----------------------------------------------------------------------|
    (Guitar 2 plays F# Octave the whole time)


E-----------------------------------------------------------------------|
B-----------------------------------------------------------------------|
G---8--8--8--8--8--8--8--6--6--6--6--6--6--6--6-------------------------|
D-----------------------------------------------------------------------|
A---6--6--6--6--6--6--6--4--4--4--4--4--4--4--4-------------------------|
E-----------------------------------------------------------------------|

E-----------------------------------------------------------------------|
B-----------------------------------------------------------------------|
G---4--4--4--4--x--x--x--x--x--x--x--x----------------------------------|
D---------------x--x--x--x--x--x--x--x----------------------------------|
A---2--2--2--2--x--x--x--x--x--x--x--x----------------------------------|
E---------------x--x--x--x--x--x--x--x----------------------------------|


    CHORUS (Guitar 1 con't.)
E-----------------------------------------------------------------------|
B-----------------------------------------------------------------------|
G---11--11--11--11--11--11--11--11--13--13--13--13--13--13--13--13------|
D-----------------------------------------------------------------------|
A---9---9---9---9---9---9---9---9---11--11--11--11--11--11--11--11------|
E-----------------------------------------------------------------------|
  (Guitar 2 plays F# octave then drops to an F on the last four octaves)


E-----------------------------------------------------------------------|
B-----------------------------------------------------------------------|
G---4--4--4--4--4--4--4--4--6--6--6--6--x--x--x--x--x--x--x--x----------|
D---------------------------------------x--x--x--x--x--x--x--x----------|
A---2--2--2--2--2--2--2--2--4--4--4--4--x--x--x--x--x--x--x--x----------|
E---------------------------------------x--x--x--x--x--x--x--x----------|


  (VERSE)

  (PRE-CHORUS)


                                              OUTRO
E------------------------------------------------------2----------------|
B---------------------------------------------3--3--3--2----------------|
G---------------------------------------------4--4--4--3----------------|
D---------------------------------------------4--4--4--4----------------|
A---------------------------------------------2--2--2--4----------------|
E------------------------------------------------------2----------------|
Tap to rate this tab
# A B C D E F G H I J K L M N O P Q R S T U V W X Y Z