Song name
# A B C D E F G H I J K L M N O P Q R S T U V W X Y Z

Inspection 12 - Secure tab

 VERSE (Repeat w/distortion)
E-----------------------------------------------------------------------------------------|
B-9-9-9-9-9-------------9-9-9-9-9-------------10-10-10-10-10------------------------------|
G-9-9-9-9-9--6-6-6-6-6--9-9-9-9-9--6-6-6-6-6--11-11-11-11-11--6-6-6-6-6--9-9-9-9-9-9------|
D-9-9-9-9-9--7-7-7-7-7--9-9-9-9-9--7-7-7-7-7--11-11-11-11-11--7-7-7-7-7--9-9-9-9-9-9------|
A-7-7-7-7-7--7-7-7-7-7--7-7-7-7-7--7-7-7-7-7---9--9--9--9--9--7-7-7-7-7--7-7-7-7-7-7------|
E------------5-5-5-5-5-------------5-5-5-5-5------------------5-5-5-5-5-------------------|

 CHORUS #1
E-----------------------------------------------------------------------------------------------------------|
B-9------------------------------5------------------------------------------------------------4-4-4-4-------|
G-9------------------------------6------------------------------2-----------------------------4-4-4-4-------|
D-9------------------------------6------------------------------4-----------------------------4-4-4-4-------|
A-7-7-7-7-7-7-7-7-7-7-7-7-7-7-7--4-4-4-4-4-4-4-4-4-4-4-4-4-4-4--4-----------------------------2-2-2-2-------|
E---------------------------------------------------------------2-2-2-2-2-2-2-2-2-2-2-2-2-2-2---------------|


(VERSE)


SOLO CHORDS
E---------------------------------------------------------0-------0------0-0-0-0-0-0--------------|
B-9-9-9-9-9-9--5-5-5-5-5-5-------------------------------0--0------0-----0-0-0-0-0-0--------------|
G-9-9-9-9-9-9--6-6-6-6-6-6-----------------------------2-----2---2---2---1-1-1-1-1-1--------------|
D-9-9-9-9-9-9--7-7-7-7-7-7--9-9-9-9-9-9--------------4--------4-2-----2--2-2-2-2-2-2--------------|
A-7-7-7-7-7-7--7-7-7-7-7-7--7-7-7-7-7-7-9-9-9-9-9-9--4---------0---------2-2-2-2-2-2--------------|
E--------------5-5-5-5-5-5--------------7-7-7-7-7-7--2-------------------0-0-0-0-0-0--------------|

(Continued solo chords)
E-----------------------------------------------------------------------------------------------------------------------|
B-4-4-4-4-4-4--2-2-2-2-2-2--0-0-0-9-9-9--2-2-2-2-2-2-0-0-0-9-9-9--------------4-4-4-4-4-4-0-0-0-0-0-0-4-4-4-4-4-4-------|
G-4-4-4-4-4-4--2-2-2-2-2-2--1-1-1-9-9-9--2-2-2-2-2-2-1-1-1-9-9-9--2-2-2-2-2-2-4-4-4-4-4-4-1-1-1-1-1-1-4-4-4-5-5-5-------|
D-4-4-4-4-4-4--2-2-2-2-2-2--2-2-2-9-9-9--2-2-2-2-2-2-2-2-2-9-9-9--4-4-4-4-4-4-4-4-4-4-4-4-2-2-2-2-2-2-4-4-4-6-6-6-------|
A-2-2-2-2-2-2--0-0-0-0-0-0--2-2-2-7-7-7--0-0-0-0-0-0-2-2-2-7-7-7--4-4-4-4-4-4-2-2-2-2-2-2-2-2-2-2-2-2-2-2-2-3-3-3-------|
E---------------------------------0-0-0--------------------0-0-0--2-2-2-2-2-2-------------0-0-0-0-0-0-------------------|


BRIDGE
E-----------------------------------------------------------------------------------------------------|
B-55555------------------------5-5-5-5-5-5-----------2-2-2-2-2-2-0-0-0-0-0-0--------------------------|
G-66666-44444-66666---9----8---6-6-6-6-6-6-4-4-4-4-4-2-2-2-2-2-2-1-1-1-1-1-1--------------------------|
D-66666-66666-77777---9----9---6-6-6-6-6-6-6-6-6-6-6-2-2-2-2-2-2-2-2-2-2-2-2--------------------------|
A-44444-66666-77777-7--7-6-6---4-4-4-4-4-4-6-6-6-6-6-0-0-0-0-0-0-2-2-2-2-2-2--------------------------|
E-------44444-55555------------------------4-4-4-4-4-------------0-0-0-0-0-0--------------------------|


                                       (CODA)Repeat Twice More
E-2----0---0----0--------0---0------------------------------------------------------------------------|
B-2---0-0--0---0-0--4---0-0--0------------------------------------------------------------------------|
G-2--2---2-1--1---1-4--4---4-1---------(6-6-6-6-6-6-4-4-4-4-4-4-2-2-2-2-2-2-2XX2-4XX4-----------------|
D-4-4------2-2------4-4------2---------(6-6-6-6-6-6-4-4-4-4-4-4-2-2-2-2-2-2-2XX2-4XX4-----------------|
A-4--------2--------2--------2---------(4-4-4-4-4-4-2-2-2-2-2-2-0-0-0-0-0-0-0XX0-2XX2-----------------|
E-2--------0-----------------0-00000-0----------------------------------------------------------------|


 CHORUS #2
E-----------------------------------------------------------------------------------------------------|
B-2xx-4xx-5xx-77--------------------------------------------------------------------------------------|
G-2xx-4xx-6xx-88---9-9-9-9-9-9-8-8-8-8-8-8-6-6-6-6-6-6------------------------------------------------|
D-2xx-4xx-6xx-99---9-9-9-9-9-9-9-9-9-9-9-9-6-6-6-6-6-6-6-6-6-6-6-6------------------------------------|
A-0xx-2xx-4xx-66---7-7-7-7-7-7-6-6-6-6-6-6-4-4-4-4-4-4-2-2-2-2-2-2------------------------------------|
E-----------------------------------------------------------------------------------------------------|

E-----------------------------------------------------------------------------------------------------|
B-----------------------------------------------------------------------------------------------------|
G-2-2-2-2-2-2-2-2-2-2-2-2--4-4-4-4-4-4-4-4-4-4-4-4--9-9-9-9-9-9-8-8-8-8-8-8---------------------------|
D-4-4-4-4-4-4-4-4-4-4-4-4--4-4-4-4-4-4-4-4-4-4-4-4--9-9-9-9-9-9-9-9-9-9-9-9---------------------------|
A-4-4-4-4-4-4-4-4-4-4-4-4--2-2-2-2-2-2-2-2-2-2-2-2--7-7-7-7-7-7-6-6-6-6-6-6---------------------------|
E-2-2-2-2-2-2-2-2-2-2-2-2-----------------------------------------------------------------------------|

E-------------------------------------------------------0---------------------------------------------|
B-------------------------------------------------------2---------------------------------------------|
G-6-6-6-6-6-6------------------2--2--2--2--2--2--2--2---2---------------------------------------------|
D-6-6-6-6-6-6--6-6-6-6-6-6-----4--4--4--4--4--4--4--4---2---------------------------------------------|
A-4-4-4-4-4-4--2-2-2-2-2-2-----4--4--4--4--4--4--4--4---0---------------------------------------------|
E---------------------------X--2--2--2--2--2--2--2--2-------------------------------------------------|


  OUTRO (Same as Intro)
Tap to rate this tab
# A B C D E F G H I J K L M N O P Q R S T U V W X Y Z