Song name
# A B C D E F G H I J K L M N O P Q R S T U V W X Y Z

Institute - Bulletproof Skin tab

Song: Bullet Proof Skin
Artist: Institute
Tabbed by: Matthew Craig (Ryeband)
------------------------------------------------------------------------

(Intro:)
Guitar 1:                          Guitar 2: (Very Silent)
e|-------------------------------||-----------------------------------------------------|
B|-------------------------------||-----------------------------------------------------|
G|-------------------------------||------------------------2-2-2-4-5-4-5-4-5-4-5-4-5-4--|
D|-------------------------------||--2-2-2-2-2-2-2-2-2-2-2------------------------------|
A|-------------------------------||-----------------------------------------------------|
E|--0-0-0-0-0-0-0-0-0-0-0-0-0-0--||-----------------------------------------------------|

(Verse:)
    A#  B A#   A#  B  A#       F#     D#             A#  B A#     A#    B A#         F#  
    D#
e|-----------------------------------------------||----------------------------|-------------------|
B|-----------------------------------------------||----------------------------|-------------------|
G|--------------------------11-11-11--8-8-8-8-8--||----------------------------|--11-11-11--8-8-8--|
D|--8-8-9-8-8--8-8-8-9-8-8--11-11-11--8-8-8-8-8--||--8-8-9-8-8----8-8-8-9-8-8--|--11-11-11--8-8-8--|
A|--8-8-9-8-8--8-8-8-9-8-8--9--9--9---6-6-6-6-6--||--8-8-9-8-8----8-8-8-9-8-8--|--9--9--9---6-6-6--|
E|--6-6-7-6-6--6-6-6-7-6-6-----------------------||--6-6-7-6-8----6-6-6-7-6-6--|-------------------|
                                                   I'm a wasted boy....        ...down 
the final curtain...

(Chorus:)
    A#  C#  F#  F
e|-----------------|
B|-----------------|
G|-----------------|
D|--8---11--4---3--|
A|--8---11--4---3--|
E|--6---9---2---1--|

(Bridge:)
e|-----------------|
B|-----------------|
G|------8-------8--|
D|--4---8---4---8--|
A|--4---6---4---6--|
E|--2-------2------|
Tap to rate this tab
# A B C D E F G H I J K L M N O P Q R S T U V W X Y Z