Song name
# A B C D E F G H I J K L M N O P Q R S T U V W X Y Z

Institute - Heat Of Your Love tab

Help us improve GuitareTab! Take a short survey!
Institute - The Heat of your love

I've tabbed the song because the other tab was weird... 1/2 step down isn't a drop d 
and the you should use dadgbe... Whatever.

Standart Tuning: EADGBe

Intro part A:

E-4-4---4----4-4--4------4-----4-4-----|
A--------------------------------------|
D-----4---6------4--6----------------4-|   2x
G---------------------------6------4---|
B--------------------------------------|
e--------------------------------------|


Then Intro Part B:

E-2-2-2-4---------------------------|
A-4-4-4-6---11-11-11-11-11-11-11-11-|
D-4-4-4-6---x--x--x--x--x--x--x--x--|   2x
G-----------13-13-13-13-13-13-13-13-|
B-----------------------------------|
e-----------------------------------|


Verse: Palm Mute


E-2-2-2-4----2-2-2-4---5-5-7-7-|
A-4-4-4-6----4-4-4-6---7-7-9-9-|
D-4-4-4-6----4-4-4-6---7-7-9-9-|  6x
G------------------------------|
B------------------------------|
e------------------------------|

Right for The chorus he played:

E-2-2-2-4----2-2-2-4---|
A-4-4-4-6----4-4-4-6---|
D-4-4-4-6----4-4-4-6---|
G----------------------|
B----------------------|
e----------------------|


A second Guitar play after a while:

E-------|
A-11-11-|
D-x--x--|
G-13-13-| I couldn't figure out the exact count of hitting these notes
B-------|
e-------|


Chorus:

E-4-4-4-4-4-4-4-4-4-4-4-4-7-7-7-7-0-0-0-0-0-0-0-0-0-0-0-0-|
A-6-6-6-6-6-6-6-6-6-6-6-6-9-9-9-9-2-2-2-2-2-2-2-2-2-2-2-2-|
D-6-6-6-6-6-6-6-6-6-6-6-6-9-9-9-9-2-2-2-2-2-2-2-2-2-2-2-2-|
G---------------------------------------------------------|
B---------------------------------------------------------|
e---------------------------------------------------------|

I couldn't figure out the second guitar.


Back to The Intro Part A.

Then Back to Verse

Then Chorus

On the solo he just play:

E---------------------------------|
A-2-2-2-2-2-2-2-2-2-2-2-2-4-4-4-4-|
D-4-4-4-4-4-4-4-4-4-4-4-4-6-6-6-6-|
G-4-4-4-4-4-4-4-4-4-4-4-4-6-6-6-6-|
B---------------------------------|
e---------------------------------|

The Rest is already standing here.
For the solo you can watch the other tab i think it's quite good.

thank you for using my tab
Related for Heat Of Your Love tab