Song name
# A B C D E F G H I J K L M N O P Q R S T U V W X Y Z

Institute - When Animals Attack tab

this is my first time tabbing...i'm pretty sure this is right..NOTE:  the amount of 
is not rite..you can just figure out how many times you play the note when u hear the song.

INTRO
E----------------------------------------------------------------------------|
B-11-11-11-11-9-9-9-9-9-9-9-12-12-12-12-12-12--------------------------------|
G----------------------------------------------------------------------------|
D----------------------------------------------------------------------------|
A----------------------------------------------------------------------------|
E----------------------------------------------------------------------------|

E----------------------------------------------------------------------------|
B----------------------------------------------------------------------------|
G----------------------------------------------------------------------------|
D-8-8-8-8--9-9-9-9-11-11-11-11-----------------------------------------------|
A-8-8-8-8--9-9-9-9-11-11-11-11-----------------------------------------------|
E-6-6-6-6--7-7-7-7--9--9--9--9-----------------------------------------------|

E----------------------------------------------------------------------------|
B----------------------------------------------------------------------------|
G-11-11-11-11--8-8-8-8-------------------------------------------------------|
D-11-11-11-11--8-8-8-8-------------------------------------------------------|
A--9--9--9--9--6-6-6-6-------------------------------------------------------|
E----------------------------------------------------------------------------|

So those are the three riffs there are in this song...in some parts if u want you just 
the intro but i think theres a bend at the end..if there are any comments or errors 
e-mail me at hellsbells329@aol.com
Tap to rate this tab
# A B C D E F G H I J K L M N O P Q R S T U V W X Y Z