Song name
# A B C D E F G H I J K L M N O P Q R S T U V W X Y Z

Insurrection - Fideles tab

Help us improve GuitareTab! Take a short survey!
Artist: Insurrection
Song: Fidles
Album: Ne Plus Subir
Year : 2008

Cette chanson est jouable aussi bien en accordant la guitare entire en r quen Drop D. 
can play this song both tuned down 1 step and tuned drop D.

Tempo : environ/about 160bpm

Riff principal (main riff) :
D|----------------------------|----------------------------|
A|----------------------------|----------------------------|
F|----------------------------|----------------------------|
C|--4--------------5---4---5--|----------------------------|
G|--2--2-2-2-2-2-2-3---2---3--|--5--------------7---5---7--|
D|----------------------------|--3--3-3-3-3-3-3-5---3---5--|

D|----------------------------|----------------------------|
A|----------------------------|----------------------------|
F|----------------------------|----------------------------|
C|--4--------------5---4---5--|-----------------7---7---7--|
G|--2--2-2-2-2-2-2-3---2---3--|--5--------------5---5---5--|
D|----------------------------|--3--3-3-3-3-3-3------------|


Riff du refrain (chorus riff) :
D|-------------------|-------------------|-------------------|-------------------|
A|-------------------|-------------------|-------------------|-------------------|
F|--4----------------|-------------------|-------------------|-------------------|
C|--4----------------|--5----------------|--7----------------|--2----------------|
G|--2----------------|--5----------------|--7----------------|--2----------------|
D|-------------------|--3----------------|--5----------------|--0----------------|


Dernier accord (last chord) :
D|-------------------|
A|-------------------|
F|--4----------------|
C|--4----------------|
G|--2----------------|
D|-------------------|
Related for Fideles tab