Song name
# A B C D E F G H I J K L M N O P Q R S T U V W X Y Z

Inteha - Anjaana tab

----------------------------------------------------------------------------
			   Anjaana - Inteha
----------------------------------------------------------------------------

Tabbed by: ahsen khan
Email: rocking_lead_guitar@hotmail.com

Tuning: standard

wel this is a nice song not much into it but sounds nice its from the inteha and i like 
song so i decided to tab it:

Intro:

e|-------------------------------------------------------------------------|
B|-----------2--------------2----------------------------------------------|
G|---4--4---4-4-4---4--4---4-4---------------------------------------------|
D|--4--4-4-4---4---4--4-4-4---4--------------------------------------------|
A|-2--2---2-------2--2---2-----2-------------------------------------------|
E|-------------------------------------------------------------------------|

Repeat this 6 times then the distroted guitar comes in

e|-------------------------------------------------------------------------|
B|-------------------------------------------------------------------------|
G|-------------------------------------------------------------------------|
D|-5555-777777-999999--5555-777777-999999-121212121212---------------------|
A|-5555-777777-999999--5555-777777-999999-121212121212---------------------|
E|-3333-555555-777777--3333-555555-777777-101010101010---------------------|

Reapeat this twice by strumming according to the rythm

Verse:

PLay this part palm muted
   v^v^ v^v
e|-------------------------------------------------------------------------|
B|-------------------------------------------------------------------------|
G|-------------------------------------------------------------------------|
D|-7777-777----------------------------------------------------------------|
A|-7777-777----------------------------------------------------------------|
E|-5555-555----------------------------------------------------------------|

Repeat this pattern 8 times

Then play this
   v^ v^ v^ v^                     v^ v^ v^ v^
e|-------------------------------------------------------------------------|
B|-------------------------------------------------------------------------|
G|-------------------------------------------------------------------------|
D|-77-77-77-77---757575757575757---77-77-77-77-----------------------------|
A|-77-77-77-77---757575757575757---77-77-77-77-----------------------------|
E|-55-55-55-55---555555555555555---55-55-55-55-----------------------------|

Then after playing this once he plays the intro riff again then comes
the second verse

Verse 2:
   v^
e|-------------------------------------------------------------------------|
B|-------------------------------------------------------------------------|
G|-------------------------------------------------------------------------|
D|-77----------------------------------------------------------------------|
A|-77----------------------------------------------------------------------|
E|-55----------------------------------------------------------------------|

plays this 16 times up and down strikes then comes the chorus

Chorus:

e|-------------------------------------------------------------------------|
B|-------------------------------------------------------------------------|
G|-------------------------------------------------------------------------|
D|-5--------------7------------------9-------------------------------------|
A|-5--------------7------------------9-------------------------------------|
E|-3--------------5------------------7-------------------------------------|

Strum the first two chords 4 times each with rythm and last 6 times with rythm
and repeat this 3 times then play

e|-------------------------------------------------------------------------|
B|-------------------------------------------------------------------------|
G|-------------------------------------------------------------------------|
D|--757575757575757----5-----7-----9---------------------------------------|
A|--757575757575757----5-----7-----9---------------------------------------|
E|--555555555555555----3-----5-----7---------------------------------------|

Last three chords play them each four times then the solo:

Solo:

e|-------------------------------------------------------------------------|
B|-5-5-7-10-10-8-7---7--5-5-7-10-10-8-7--7-5-------------------------------|
G|-----------------99------------------99----------------------------------|
D|-------------------------------------------------------------------------|
A|-------------------------------------------------------------------------|
E|-------------------------------------------------------------------------|

e|--5-7-8-7-5---------------------------5-7-8-7-5-10-8-7-5-7875------------|
B|-5---------8-7-5-7-8-78-78-78-8-7-5--5-----------------------------------|
G|-------------------------------------------------------------------------|
D|-------------------------------------------------------------------------|
A|-------------------------------------------------------------------------|
E|-------------------------------------------------------------------------|

e|--5-7-8-7-5---------------------------5-7-8-7-5-10-8-7-5-7875------------|
B|-5---------8-7-5-7-8-78-78-78-8-7-5--5-----------------------------------|
G|-------------------------------------------------------------------------|
D|-------------------------------------------------------------------------|
A|-------------------------------------------------------------------------|
E|-------------------------------------------------------------------------|

Now he strumms the chord

e|-------------------------------------------------------------------------|
B|-2--2--2--2--2--2--------------------------------------------------------|
G|-4--4--4--4--4--4--------------------------------------------------------|
D|-4--4--4--4--4--4--------------------------------------------------------|
A|-2--2--2--2--2--2--------------------------------------------------------|
E|-------------------------------------------------------------------------|

Chorus:

e|-------------------------------------------------------------------------|
B|-------------------------------------------------------------------------|
G|-------------------------------------------------------------------------|
D|-5--------------7------------------9-------------------------------------|
A|-5--------------7------------------9-------------------------------------|
E|-3--------------5------------------7-------------------------------------|

Strum the first two chords 4 times each with rythm and last 6 times with rythm
and repeat this 2 times then play verse again:

Verse:

PLay these palm muted

e|-------------------------------------------------------------------------|
B|-------------------------------------------------------------------------|
G|-------------------------------------------------------------------------|
D|-777--999--121212--------------------------------------------------------|
A|-777--999--121212--------------------------------------------------------|
E|-555--777--101010--------------------------------------------------------|

Chorus:

e|-------------------------------------------------------------------------|
B|-------------------------------------------------------------------------|
G|-------------------------------------------------------------------------|
D|-5--------------7------------------9-------------------------------------|
A|-5--------------7------------------9-------------------------------------|
E|-3--------------5------------------7-------------------------------------|

Strum the first two chords 4 times each with rythm and last 6 times with rythm and 
this 1 times then play

e|-------------------------------------------------------------------------|
B|-------------------------------------------------------------------------|
G|-------------------------------------------------------------------------|
D|--757575757575757----5-----7-----9---------------------------------------|
A|--757575757575757----5-----7-----9---------------------------------------|
E|--555555555555555----3-----5-----7---------------------------------------|

Last three chords play till the end of the song with the same rythm as the
chorus

Well there you go i have worked hard on this its a long tab and a good song
have fun with it enjoy playing it peace.....  =P

| /  slide up
| \  slide down
| h  hammer-on
| p  pull-off
| ~  vibrato
| +  harmonic
| x  Mute note
============================================================================
Tap to rate this tab
# A B C D E F G H I J K L M N O P Q R S T U V W X Y Z