Song name
# A B C D E F G H I J K L M N O P Q R S T U V W X Y Z

Inteha - Dasstaan tab

Song :- Daastan

Band :- Inteha

website: www.inteha.net

Tabbed by :- Knight_Guitar
this is my fav song from pakistan its pakistani savage garden

*note it's better if u refer to the text document cause it's better that way the thread 
screwed my tabaluture


Intro :- (Bass Tabs)(it's better if use rolling to play the intro bass)


-----------------------------------------------------------------------------|
-----------------------------------------------------------------------------|
-----------------------------------------------------------------------------|
--5-5-5-5---8-8-8--7-7---3-3-3--8-8-8--7-7---1-1-1-8-8-8-7-7--5-5-5-3-5-5-5--|
-----------------------------------------------------------------------------|
-----------------------------------------------------------------------------|

While playing intro (bass tabs) :- play the following tabs (distorted)


--xxx---xx--xxx---xxx--xx---xxx--xxx---xx--xxx--xxx---x---xxxx--------------------------|
--xxx---xx--xxx---xxx--xx---xxx--xxx---xx--xxx--xxx---x---xxxx--------------------------|
--555--88--777--333--88--777--111--88--777--555--3--5555--------------------------------|
--555--88--777--333--88--777--111--88--777--555--3--5555--------------------------------|
--555--88--777--333--88--777--111--88--777--555--3--5555--------------------------------|
--xxx---xx--xxx---xxx--xx---xxx--xxx---xx---xxx--xxx---x--xxxx--------------------------|


(i'm not writting how to strum these notes, i belive u'll find out urself)

--x---------x--------x-----------------------|
--x---------x--------x-----------------------|
--5---------1--------5-----------------------|
--5---------1--------5-----------------------|
--5---------1--------5-----------------------|
--x---------x--------x-----------------------|


ho kaise...Main...kahooonnnn...

|-------------------------------------------------------|
--x---------x-------x-----------xx-xx-xx----------------|
--x---------x-------x-----------xx-xx-xx----------------|
--1---------3-------5-----------88-77-55----------------|
--1---------3-------5-----------88-77-55----------------|
--1---------3-------5-----------88-77-55----------------|
--x---------x-------x------------xx-xx-xx---------------|

Tujh......main......Rahoon |--------|<-----Music in between (hear the audio u'll come to 
what i'm talking about)


|-------------------------------------------------------|
--x---------x-------x------------xx-xx-xx---------------|
--x---------x-------x------------xx-xx-xx---------------|
--1---------3-------5-----------88-77-55----------------|
--1---------3-------5-----------88-77-55----------------|
--1---------3-------5-----------88-77-55----------------|
--x---------x-------x------------xx-xx-xx---------------|
Khawabon...mere.....Bassa |-----------------------------|


----x-------------------------x----------------------|
----x-------------------------x----------------------|
----x-------------------------x----------------------|
----1-------------------------3----------------------|
----1-------------------------3----------------------|
----x-------------------------x----------------------|
aaja.......................Ekbaar


----x-------------------------x----------------------|
----x-------------------------x----------------------|
----x-------------------------x----------------------|
----1-------------------------3----------------------|
----1-------------------------3----------------------|
----x-------------------------x----------------------|
Kar..........................Intezaar

----x-------------------------x--------------x---------|
----x-------------------------x--------------x---------|
----x-------------------------x--------------5---------|
----1-------------------------3--------------5---------|
----1-------------------------3--------------5---------|
----x-------------------------x--------------x---------|
Sun ........................Saajna.........pukaar

----x-------------------------x--------------x---------|
----x-------------------------x--------------x---------|
----x-------------------------x--------------5---------|
----1-------------------------3--------------5---------|
----1-------------------------3--------------5---------|
----x-------------------------x--------------x---------|
Tujh...........................kaise.............. .rahoon


MusiC in between :-

--xxx---xx---xxx---xxx-xx---xxx---xxx--xx--xxx---xxx--x---xxxx--------------------------|
--xxx---xx---xxx---xxx-xx---xxx---xxx--xx--xxx---xxx--x---xxxx--------------------------|
--555--88--777--333--88--777--111--88--777--555--3--5555--------------------------------|
--555--88--777--333--88--777--111--88--777--555--3--5555--------------------------------|
--555--88--777--333--88--777--111--88--777--555--3--5555--------------------------------|
--xxx---xx--xxx---xxx--xx---xxx---xxx--xx---xxx--xxx---x--xxxx--------------------------|


For the verses.. the progression goes same.. a little change.. !! i'm very confused
Tap to rate this tab
# A B C D E F G H I J K L M N O P Q R S T U V W X Y Z