Song name
# A B C D E F G H I J K L M N O P Q R S T U V W X Y Z

Interpol - Interlude tab

Interpol - Interlude

Guit 1
e---------------------------|
B---------------------------|
G--7-6-7-7-6----------------|
D------------7-5-4-5-4------|
A---------------------------|
E---------------------------|

(00:28)
e---------------------------|
B---------------------------|
G--7-7-7-7-6-6-6-6----------|
D---------------------------|
A---------------------------|
E---------------------------|

(00:38)
e-------------------------------------|
B--------------7---------------7---6--|
G--7-7-6-4-6-7-----7-7-6-4-6-7---7----|
D-------------------------------------|
A-------------------------------------|
E-------------------------------------|

Guit 2 (00:28)
e--------------------------------------|
B--11--12--14--12--11-----11-----11----|
G----11--11--11--11--11-11--11-11--11--|
D--------------------------------------|
A--------------------------------------|
E--------------------------------------|


------------------------------------------------------------

Artist: Interpol
Album: Turn on the Bright Lights (Japanese & Korean releases)
Tabbed by: Peter Haden
Please send comments to obstacle_84@hotmail.com
Tap to rate this tab
# A B C D E F G H I J K L M N O P Q R S T U V W X Y Z