Song name
# A B C D E F G H I J K L M N O P Q R S T U V W X Y Z

Interpol - Untitled Acoustic tab

Help us improve GuitareTab! Take a short survey!
Interpol - Untitled (acoustic)

I put this down as acoustic because I figured it out on one and I don't know how good it
on an electric. I know this isn't the way it's actually played, but you can kinda get
effect of some of the high tremolo picking that you can hear in the interlude of the 
recording if you play it this way.


Capo 6


Intro/Verse

E-----------------------------------------------------------------|
B-----------------------------------------------------------------|
G-2-2-2-2-2-2-2-2-2-2-2-2-2-2-2-2-0-0-0-0-0-0-0-0-0-0-0-0-0-2-2-2-|  x 12
D-4-4-4-4-4-4-4-2-2-2-2-2-2-2-2-2-2-2-2-2-2-2-2-2-2-2-2-2-2-2-2-2-|
A-----------------------------------------------------------------|
E-----------------------------------------------------------------|

Interlude

E-----------------------------------------------------------------|
B-0-0-0-0-0-0-0-0-0-0-0-0-0-0-0-0-0-0-0-0-0-0-0-0-0-0-0-0-0-0-0-0-|
G-2-2-2-2-2-2-2-2-2-2-2-2-2-2-2-2-0-0-0-0-0-0-0-0-0-0-0-0-0-2-2-2-|
D-4-4-4-4-4-4-4-2-2-2-2-2-2-2-2-2-2-2-2-2-2-2-2-2-2-2-2-2-2-2-2-2-|
A-----------------------------------------------------------------|
E-----------------------------------------------------------------|


E---------------0-0-0-0-0-0-0-0-0-0-0-0-0-0-0-0-0-0-0-0-0-0-0-0-0-|
B-0-0-0-0-0-0-0-0-0-0-0-0-0-0-0-0-0-0-0-0-0-0-0-0-0-0-0-0-0-0-0-0-|
G-2-2-2-2-2-2-2-2-2-2-2-2-2-2-2-2-0-0-0-0-0-0-0-0-0-0-0-0-0-2-2-2-|
D-4-4-4-4-4-4-4-2-2-2-2-2-2-2-2-2-2-2-2-2-2-2-2-2-2-2-2-2-2-2-2-2-|
A-----------------------------------------------------------------|
E-----------------------------------------------------------------|


E-0-0-0-0-0-0-0-2--p0-0-0-0-0-0-2--p0-0-0-0-0-0-0-0-0-0-0-0-0-0-0-|
B-0-0-0-0-0-0-0-0-0-0-0-0-0-0-0-0-0-0-0-0-0-0-0-0-0-0-0-0-0-0-0-0-|
G-2-2-2-2-2-2-2-2-2-2-2-2-2-2-2-2-0-0-0-0-0-0-0-0-0-0-0-0-0-2-2-2-|  x 2
D-4-4-4-4-4-4-4-2-2-2-2-2-2-2-2-2-2-2-2-2-2-2-2-2-2-2-2-2-2-2-2-2-|
A-----------------------------------------------------------------|
E-----------------------------------------------------------------|

Outro

E-----------------------------------------------------------------|
B-----------------------------------------------------------------|
G-----2---2---2-------2---2---2---0---0---0---0---0---0---0---0---|  x 6
D-4-4---4---4---4-2-2---2---2---2---2---2---2---2---2---2---2---2-|
A-----------------------------------------------------------------|
E-----------------------------------------------------------------|
Related for Untitled Acoustic tab