Song name
# A B C D E F G H I J K L M N O P Q R S T U V W X Y Z

Interpol - The New tab

The New by Interpol  - Joshua. S

The verse is from another tab but the rest is my work...

(Drop D)

Intro: (with delay on strumming strings on wrong side of bridge in background)

e---------------------------------------------------------------|
B---------------------------------------------------------------|
G---------------------------------------------------------------|  x3 (with that bridge 
delay thing at the end
D-----2---3-2--------0---2---3-2-----2---3-2--------------------|                        
every four bars)
A-3-3---3------3-2-2---2---2-----0-0---0-----0-----5---/7--8-7--|
D----------------------------------------------0-0---0----------|


e-------------------------------------------------------------|
B-------------------------------------------------------------|
G-------------------------------------------------------------|
D-5-------3-2-------0---2---3-2-----2---3-2-----0---0---0---0-|
A---8-7-3-----3-2-2---2---2-----0-0---0-----0---------2---2---|
D---------------------------------------------0---0-----------|

Then:

e|---------------------------------|
B|---------------------------------|
G|---------------------------------|
D|---------------------------------| 7x
A|-7-7-7-7-7-7-7-7-8-8-8-8-8-8-8-8-|
E|---------------------------------|

Then:

e|---3-----3-----3-----3-----3-----3-----3-----3-----3-----3-------|
B|-5-----5-----5-----5-----5-----5-----5-----5-----5-----5-----5-0-|
G|-----(0)---(0)---(0)---(0)---(0)---(0)---(0)---(0)---(0)---(0)---|
D|-----------------------------------------------------------------|
A|-----------------------------------------------------------------|
E|-----------------------------------------------------------------|

e|-----0-------0-------1-------1-----0-------0-------1-------1---|
B|---1---1---1---0---3---3---3-----1---1---1---1---3---3---3---3-|
G|-0-------0-------0-------4-----2-------2-------2-------2-------| 3x
D|---------------------------------------------------------------|
A|---------------------------------------------------------------|
E|---------------------------------------------------------------|

e|-----0-------0-------1-------1-----0-------0-------0-------0---|
B|---1---1---1---0---3---3---3-----1---1---1---1---1---1---1---1-|
G|-0-------0-------0-------4-----2-------2-------0-------0-------|
D|---------------------------------------------------------------|
A|---------------------------------------------------------------|
E|---------------------------------------------------------------|

Then:

e|-----------------------------------------------|
B|-5-//--3-//---0-0-0-0-0-0-0-0-0-0-0-0--0-0-0-0-|
G|-5-//--4-//---4-4-4-2-2-2-4-4-4-4-4-4--4-4-4-4-|
D|--------------------------------0-0-0--0-0-0-0-|
A|-----------------------------------------------|
E|-----------------------------------------------|

e|------------------------------------------------|
B|-5-//---3-//---0-0-0-0-0-0-0-0-0-0-0-0--0-0-0-0-|
G|-5-//---4-//---2-2-2-5-5-5-4-4-4-4-4-4--4-4-4-4-| (section repeat)
D|---------------------------------0-0-0--0-0-0-0-|
A|------------------------------------------------|
E|------------------------------------------------|

Then:

e|----7---7----7------7-------8---8----8------8---|
B|------------------------------------------------|
G|-4----4---4-4--4-4-4--4--5----5---5-5--5-5-5--5-| x4 (with random picking lower string)
D|------------------------------------------------|
A|------------------------------------------------|
E|------------------------------------------------|


e|----7---7----7------7---|
B|------------------------|
G|-4----4---4-4--4-4-4--4-| x4
D|------------------------|
A|------------------------|
E|------------------------|

Then:

G|-[3b3pb3pb3pb3pb3pb3pb3pb]-[3pb3sr3sr3sr3sr3-3-3]-|

G|-[3b3pb3pb3pb3pb3pb3pb3pb]-[3pb3pb3pb3pb3pb3pb3pb3pb]-| (grouped intO four bars of 
(section x6)

*add octaver at 1+ octave towards fifth time

Then:

e|--------------------------------------------------------------------|
B|--------------------------------------------------------------------|
G|--------------0------------------------------0-0--------------------|
D|------4-4-------4---9-9---9-/12-9-7---4-4--------4---9-9---7-5---5--|
A|----------0-0-----------------------------000-----------------------|
E|(4)(4)------------9----9------------4--------------9-----9-----5----|

e|---------------------------------------------------------------------|
B|---------------------------------------------------------------------|
G|-----------0-0-------------------------------0-0---------------------|
D|---4-4---------4---9-9---9-/12-9-7---4-4----------4---9-9---7-5---5--| (section x 4)
A|-------0-0-------------------------------0-0-------------------------|
E|-4---------------9----9------------4----------------9-----9-----5----|

Then:

e|---------------------------------------------|
B|---------------------------------------------|
G|---------------------------------------------|
D|-9---\4-7----2-5-4-0--2-2-h4-----------------| x2
A|---------------------------------------------|
E|---------------------------------------------|

Then:


e|---------------------------------------------------------------------------------|
B|-12-12-12-12-12-12-12-12-12-12-12-12-12-12-12-14-14b-14b-14b-14b-14b-14b-14b-14b-|
G|---------------------------------------------------------------------------------|
D|---------------------------------------------------------------------------------|
A|---------------------------------------------------------------------------------|
E|---------------------------------------------------------------------------------|


e|-----------------------------------------------------------------------------------|
B|-15-15-15-15-15-15-15-15-\11-11-11-11-11-12-12-12-\8-8-8-8-7-7-7-7-5-5-5-5-8-8-8-8-|
G|-----------------------------------------------------------------------------------|
D|-----------------------------------------------------------------------------------|
A|-----------------------------------------------------------------------------------|
E|-----------------------------------------------------------------------------------|


e|-----------------|
B|-7-7-7-7-7-7-7-7-|
G|-----------------|
D|-----------------| section x3 except hold one long seven at end of the third.
A|-----------------|
E|-----------------|
Tap to rate this tab
# A B C D E F G H I J K L M N O P Q R S T U V W X Y Z