Song name
# A B C D E F G H I J K L M N O P Q R S T U V W X Y Z

Interpol - Take You On A Cruise tab

VERSE

Guitar 1(Paul)
using an e-bow
E|---------------------------|
B|---------------------------|
G|---------------------------|
D|-4~~~~/2~~~~~/9~~~~~/7~~~~~|          x2
A|---------------------------|
E|---------------------------|

E|-----------------------------------|
B|-----------------------------------|
G|-----------------------------------|
D|-4~~~~/2~~~~~/9~~~~~/7~~/6~~/7~~~~~| (fades out)
A|-----------------------------------|
E|-----------------------------------|

then come back in with
E|---------------------------|
B|---------------------------|
G|---------------------------|
D|-4~~~~/2~~~~~/9~~~~~/7~~~~~|          x2
A|---------------------------|
E|---------------------------|

Guitar 2 (Daniel)
 come in after the first bar of guitar 1
E|-2-2-x-x-2-x-2-2-2-2-2-2--7-7-7-x-x-7-x-7-7-7-x-x-7-7-|
B|-3-3-x-x-3-x-3-3-3-3-3-3--8-8-8-x-x-8-x-8-8-8-x-x-8-8-|
G|-4-4-x-x-4-x-4-2-2-4-4-2--9-9-9-x-x-9-x-9-7-7-x-x-9-9-|
D|------------------------------------------------------|
A|------------------------------------------------------|
E|------------------------------------------------------|

x3
  -2-2-x-x-2-x-2-2-2-2-2-2--7-7-7-x-x-7-x-7-7-7-x-x-7-7-|
  -3-3-x-x-3-x-3-3-3-3-3-3--8-8-8-x-x-8-x-8-8-8-x-x-8-8-|
  -4-4-x-x-4-x-4-2-2-4-4-2--9-9-9-x-x-9-x-9-7-7-x-x-9-7-|
  ------------------------------------------------------|
  ------------------------------------------------------|
  ------------------------------------------------------|

PRE-CHORUS

Guitar 1(Paul)
using the e-bow
E|----------------------|
B|----------------------|
G|----------------------|
D|~9~~~~~~~~12~~~~11~~~~|              x2
A|----------------------|
E|----------------------|

E|-----------|
B|-----------|
G|-----------|
D|~11~~~~~~~~|
A|-----------|
E|-----------|

Guitar 2(Dan)
E|--------------------------------------------------|
B|-3--3--3--3--2--2--2--2--8--8--8--8--7--7--7--7---|
G|--44-44-44-44-22-22-22-22-99-99-99-99-77-77-77-77-|
D|--------------------------------------------------|           x2
A|--------------------------------------------------|
E|--------------------------------------------------|

E|-10----10----10----10----10----10----10---10-----|
B|---1010--1010--1010--1010--1010--1010--1010-1010-|
G|-------------------------------------------------|
D|-------------------------------------------------|
A|-------------------------------------------------|
E|-------------------------------------------------|

CHORUS

Guitar 1(Paul)
E|-12-12-12-12-12-12-12-12--10--10--10--10--9--9--9--9---|
B|----------------------------12--12--12--12-10-10-10-10-|
G|---9--9--9--9--9--9--9--9------------------------------|
D|-------------------------------------------------------|
A|-------------------------------------------------------|
E|-------------------------------------------------------|
                                                                x2
E|-12-12-12-12-12-12-12-12--10--10--10--10---9--9--14--14---|
B|----------------------------12--12--12--12--10-10--10-----|
G|---9--9--9--9--9--9--9--9---------------------------------|
D|----------------------------------------------------------|
A|----------------------------------------------------------|
E|----------------------------------------------------------|

Guitar 2(Daniel)
E|--------------------------9--9--9--9--9----------------------------------|
B|-8-8-8-10-10-10-8-8-8-8-8-10-10-10-10-10-3-3-3-3-3-3-3-3-3-3-3-3-3-3-3-3-|
G|-9-9-9-9--9--9--9-9-9-9-9----------------4-4-4-4-4-4-4-4-2-2-2-2-2-2-2-2-|
D|-------------------------------------------------------------------------|
A|-------------------------------------------------------------------------|
E|-------------------------------------------------------------------------|

E|--------------------------9--9--9--9--9----------------------------------|
B|-8-8-8-10-10-10-8-8-8-8-8-10-10-10-10-10-3-3-3-3-3-3-3-3-3-3-3-3-3-3-3-3-|
G|-9-9-9-9--9--9--9-9-9-9-9----------------4-4-4-4-4-4-4-4-2-2-2-2-2-2-2-2-|
D|-------------------------------------------------------------------------|
A|-------------------------------------------------------------------------|
E|-------------------------------------------------------------------------|

E|--------------------9--9--9--9--9--9--9--9------------------------------|
B|-8-8-8-10-10-10-8-8-10-10-10-10-10-10-10-10-3-3-3-3-3-3-3-3-3-3-3-3-3-3-|
G|-9-9-9-9--9--9--9-9-------------------------4-4-4-4-4-4-4-4-2-2-2-2-2-2-|
D|------------------------------------------------------------------------|
A|------------------------------------------------------------------------|
E|------------------------------------------------------------------------|

  -----|
  -3-3-|
  -2-2-|
  -----|
  -----|
  -----|

E|--------------------9--9--9--9--9--9--9--9------------------------------|
B|-8-8-8-10-10-10-8-8-10-10-10-10-10-10-10-10-3-3-3-3-3-3-3-3-3-3-3-3-3-3-|
G|-9-9-9-9--9--9--9-9-------------------------4-4-4-4-4-4-4-4-2-2-2-2-2-2-|
D|------------------------------------------------------------------------|
A|------------------------------------------------------------------------|
E|------------------------------------------------------------------------|

  -----|
  -3-3-|
  -2-2-|
  -----|
  -----|
  -----|

INTERLUDE

Guitar 2(Daniel)
E|-2---2---2---2---2---2---2---2---2---2---2---2---2---2---7---7---7---7-|
B|-3---3---3---3---3---3---3---3---3---3---3---3---3---3---8---8---8---8-|
G|-4---4---4---4---4---4---4---4---4---4---2---2---2---2---9---9---9---9-|
D|-----------------------------------------------------------------------|
A|-----------------------------------------------------------------------|
E|-----------------------------------------------------------------------|

  -7---7-|
  -8---8-|
  -7---7-|
  -------|
  -------|
  -------|

BRIDGE

Guitar 1(Paul)
E|-----------------------------------------------------------------|
B|-7-7-7-7-7-7-7-7-7-7-7-7-7-7-7-7-8-8-8-8-8-8-8-8-8-8-8-8-8-8-8-8-|
G|-7-7-7-7-7-7-7-7-6-6-6-6-6-6-6-6-9-9-9-9-9-9-9-9-7-7-7-7-7-7-7-7-|
D|-----------------------------------------------------------------|     x4
A|-----------------------------------------------------------------|
E|-----------------------------------------------------------------|

Guitar 2(Daniel)
E|-2-2-2-2-2-2-2-2-2-2-2-2-2-2-2-2-7-7-7-7-7-7-7-7-7-7-7-7--7--7--7--7-|
B|-3-3-3-3-3-3-3-3-3-3-3-3-3-3-3-3-8-8-8-8-8-8-8-8-8-8-8-8-10-10-10-10-|
G|-4-4-4-4-4-4-4-4-2-2-2-2-2-2-2-2-9-9-9-9-9-9-9-9-7-7-7-7--7--7--7--7-|
D|---------------------------------------------------------------------| x3
A|---------------------------------------------------------------------|
E|---------------------------------------------------------------------|

E|-2-2-2-2-2-2-2-2-2-2-2-2-2-2-2-2-7-7-7-7-7-7-7-7-7-7-7-7-7-7-|
B|-3-3-3-3-3-3-3-3-3-3-3-3-3-3-3-3-8-8-8-8-8-8-8-8-8-8-8-8-8-8-|
G|-4-4-4-4-4-4-4-4-2-2-2-2-2-2-2-2-9-9-9-9-9-9-9-9-7-7-7-7-9-9-|
D|-------------------------------------------------------------|
A|-------------------------------------------------------------|
E|-------------------------------------------------------------|

PRE-CHORUS (all the same)

CHORUS

Guitar 1(Paul)
E|-12-12-12-12-12-12-12-12--10--10--10--10--9--9--9--9---|
B|----------------------------12--12--12--12-10-10-10-10-|
G|---9--9--9--9--9--9--9--9------------------------------|
D|-------------------------------------------------------|
A|-------------------------------------------------------|
E|-------------------------------------------------------|

  -12-12-12-12-12-12-12-12--10--10--10--10---9--9--14--14---|
  ----------------------------12--12--12--12--10-10--10-----|
  ---9--9--9--9--9--9--9--9---------------------------------|
  ----------------------------------------------------------|
  ----------------------------------------------------------|
  ----------------------------------------------------------|

  -12-12-12-12-12-12-12-12--10--10--10--10--9--9--9--9---|
  ----------------------------12--12--12--12-10-10-10-10-|
  ---9--9--9--9--9--9--9--9------------------------------|
  -------------------------------------------------------|
  -------------------------------------------------------|
  -------------------------------------------------------|

  -12-12-12-12-12-12-12-12----------------------------------|
  ----------------------------------------------------------|
  ---9--9--9--9--9--9--9--9---------------------------------|
  ----------------------------------------------------------|
  ----------------------------------------------------------|
  ----------------------------------------------------------|

Guitar 2(Daniel)
E|--------------------------9--9--9--9--9----------------------------------|
B|-8-8-8-10-10-10-8-8-8-8-8-10-10-10-10-10-3-3-3-3-3-3-3-3-3-3-3-3-3-3-3-3-|
G|-9-9-9-9--9--9--9-9-9-9-9----------------4-4-4-4-4-4-4-4-2-2-2-2-2-2-2-2-|
D|-------------------------------------------------------------------------|
A|-------------------------------------------------------------------------|
E|-------------------------------------------------------------------------|

E|--------------------------9--9--9--9--9----------------------------------|
B|-8-8-8-10-10-10-8-8-8-8-8-10-10-10-10-10-3-3-3-3-3-3-3-3-3-3-3-3-3-3-3-3-|
G|-9-9-9-9--9--9--9-9-9-9-9----------------4-4-4-4-4-4-4-4-2-2-2-2-2-2-2-2-|
D|-------------------------------------------------------------------------|
A|-------------------------------------------------------------------------|
E|-------------------------------------------------------------------------|

E|--------------------9--9--9--9--9--9--9--9--12--------------10------------|
B|-8-8-8-10-10-10-8-8-10-10-10-10-10-10-10-10-----------------12------------|
G|-9-9-9-9--9--9--9-9--------------------------------------11---------------|
D|--------------------------------------------------------------------------|
A|--------------------------------------------------------------------------|
E|--------------------------------------------------------------------------|

  ---14-|
  ---10-|
  11----|
  ------|
  ------|
  ------|

OUTRO

Guitar 1(Paul)
using the e-bow
E|---------------------------|
B|---------------------------|
G|---------------------------|
D|-4~~~~/2~~~~~/9~~~~~/7~~~~~|          x8
A|---------------------------|
E|---------------------------|

Guitar 2(Daniel)    x6   then end with this x1
also now using the e-bow
E|------------------------------|-------------------------------------|
B|------------------------------|-------------------------------------|
G|-4~~~~~/11~~~~~/2~~~~~/12~~~~~|-9~~~~~/4~~~~~/11~~~~~/2~~~~~/12~~~~~|
D|------------------------------|-------------------------------------|
A|------------------------------|-------------------------------------|
E|------------------------------|-------------------------------------|

Both Guitars then fade out.
Tap to rate this tab
# A B C D E F G H I J K L M N O P Q R S T U V W X Y Z