Guitaretab - guitar tabs
Song name
# A B C D E F G H I J K L M N O P Q R S T U V W X Y Z

Interpol - Precipitate tab

Interpol - Precipitate


Guit 1

C, Em, Am, F


Guit 2

(0:11)
E  :----------------|----------------| 
B  :----------------|----------------| 
G  :5~----1~-----2~-|-----5~---4~----| x2
D  :----------------|----------------| 
A  :----------------|----------------| 
E  :----------------|----------------|

 (0:28)
E  :----------------|----------------|----------------| 
B  :----------------|----------------|----------------| 
G  :5-4-5-4-5-7-5-4-|1--1-2--2--2----|5-5-5-5-5-4-4---|
D  :----------------|----------------|----------------| x4
A  :----------------|----------------|----------------| 
E  :----------------|----------------|----------------|

 (1:06)
E  :----------------|-----------------|  
B  :----------------|-----------------|
G  :----------------|-----------------|
D  :----------------|---------------2-|
A  :-2-(x8)---------|-3-(x16)-2(x8)---|
E  :--------0-(x8)--|-----------------| 


 (1:18)
E  :----------------| 
B  :5-5-5-5-5-6-5-6-| 
G  :----------------| x3
D  :----------------| 
A  :----------------| 
E  :----------------|

E  :----------------| 
B  :5-5-5-5-5-8-5-5-| 
G  :----------------| 
D  :----------------| 
A  :----------------| 
E  :----------------|

E  :----------------| 
B  :5-5-5-5-5-6-5-6-| 
G  :----------------| x2
D  :----------------| 
A  :----------------| 
E  :----------------|




E  :----------------| 
B  :5-5-5-5-5-5-5-5-| 
G  :----------------|
D  :----------------| 
A  :----------------| 
E  :----------------|

(1:34)
E  :----------------|----------------|----------------| 
B  :----------------|----------------|----------------| 
G  :5-4-5-4-5-7-5-4-|1--1-2--2--2----|5-5-5-5-5-4-4---|
D  :----------------|----------------|----------------| x4
A  :----------------|----------------|----------------| 
E  :----------------|----------------|----------------|

(2:12)
E  :----------------|-----------------|  
B  :----------------|-----------------|
G  :----------------|-----------------|
D  :----------------|---------------2-|
A  :-2-(x8)---------|-3-(x16)-2(x8)---|
E  :--------0-(x8)--|-----------------|

(2:24)
E  :----------------| 
B  :5-5-5-5-5-6-5-6-| 
G  :----------------| x3
D  :----------------| 
A  :----------------| 
E  :----------------|

E  :----------------| 
B  :5-5-5-5-5-8-5-5-| 
G  :----------------| 
D  :----------------| 
A  :----------------| 
E  :----------------|

E  :----------------| 
B  :5-5-5-5-5-6-5-6-| 
G  :----------------| x3
D  :----------------| 
A  :----------------| 
E  :----------------|

E  :----------------| 
B  :5-5-5-5-5-8-5-5-| 
G  :----------------| 
D  :----------------| 
A  :----------------| 
E  :----------------|

E  :----------8-----|-----------7----|
B  :5-5-5-5-5---5---|-5-5-5-5-5---5--|
G  :----------------|----------------| x3
D  :----------------|----------------|
A  :----------------|----------------|
E  :----------------|----------------|


E  :----------------| 
B  :5-5-5-5-5-5-5-5-| 
G  :----------------| x2
D  :----------------| 
A  :----------------| 
E  :----------------|
[ Tab from: http://www.guitaretab.com/i/interpol/56364.html ]
(3:13)
E  :----------------|----------------|----------------|----------------|
B  :----------------|----------------|5-5-5-5-5-5-5-5-|------5-5-5-----|
G  :5-5-5-5-5-5-5-5-|4-4-4-4-4-4-4-4-|----------------|7-7-7-------7-7-| x4
D  :----------------|----------------|----------------|----------------|
A  :----------------|----------------|----------------|----------------|
E  :----------------|----------------|----------------|----------------|

E  :----------------|----------------|----------------| 
B  :----------------|----------------|----------------| 
G  :5-5-5-5-5-5-5-5-|4-4-4-4-4-4-4-4-|2-2-2-2-2-2-2-2-| 
D  :----------------|----------------|----------------| 
A  :----------------|----------------|----------------| 
E  :----------------|----------------|----------------|

E  :----------------|----------------|---------------- ----------------| 
B  :----------------|----------------|----------------|----------------| 
G  :----------------|----------------|----------------|----------------|
D  :5-5-5-5-5-5-5-5-|3-3-3-3-3-3-3-3-|2-2-2-2-2-2-2-2-|2-2-2-2-2-2-2-2-| x3
A  :----------------|----------------|----------------|----------------| 
E  :----------------|----------------|----------------|----------------|

E  :----------------|----------------|----------------|----------------|
B  :----------------|----------------|5-5-5-----------|6-6-6-----------|
G  :5-5-5-5-5-5-5-5-|4-4-4-4-4-4-4-4-|------5-5-5-4-4-|------5-5-5-4-4-|
D  :----------------|----------------|----------------|----------------|
A  :----------------|----------------|----------------|----------------|
E  :----------------|----------------|----------------|----------------|

E  :----------------|----------------|----------------|----------------|
B  :----------------|----------------|5-5-5-----------|6-6-6-6-8-8-8-8-|
G  :5-5-5-5-5-5-5-5-|4-4-4-4-4-4-4-4-|------5-5-5-4-4-|----------------|
D  :----------------|----------------|----------------|----------------|
A  :----------------|----------------|----------------|----------------|
E  :----------------|----------------|----------------|----------------|

E  :----------------|----------------|----------------|7-7-7-7-7-7-7-7-| 
B  :1010101010101010|9-9-9-9-9-9-9-9-|1010101010101010|----------------|
G  :----------------|----------------|----------------|----------------|
D  :----------------|----------------|----------------|----------------|
A  :----------------|----------------|----------------|----------------|
E  :----------------|----------------|----------------|----------------|

E  :8-8-8-8-8-8-8-8-|1010101010101010|1212121212121212|1212121212121212|
B  :----------------|----------------|----------------|----------------|
G  :----------------|----------------|----------------|----------------|
D  :----------------|----------------|----------------|----------------|
A  :----------------|----------------|----------------|----------------|
E  :----------------|----------------|----------------|----------------|





(4:49)
E  :----------------|----------------|----------------|----------------|
B  :----------------|-----5---5------|-5--6--5--6-5--|-----5---5------|
G  :-5-7-5--7--5--|---7---7---7----|----------------|---7---7---7----|
D  :----------------|----------------|----------------|----------------| x4
A  :----------------|----------------|----------------|----------------|
E  :----------------|----------------|----------------|----------------|

Guit 1

Ends on Am

------------------------------------------------------------
Artist: Interpol
Album: Precipitate EP/Fukd id#3
Tabbed by: Peter Haden
Please send comments to obstacle_84@hotmail.com
Related for Precipitate tab