Song name
# A B C D E F G H I J K L M N O P Q R S T U V W X Y Z

Interpol - Slow Hands Live tab

Interpol - Slow Hands (antics)
 tabbed by Gustavo Flores/ethos_worm@hotmail.com

I made this for the bridges actually..though this is just the way Daniel Kessler plays
them live. Or so I believe since it sounds too much different from live to the album
song, though maybe the Bridge I here is the right one in the record too. You should
play it anyway you like to, it still sounds good, and it's a really cool song. Good
luck!

Bridge I
 e-----------------------------------------------------------------|
 B-----------------------------------------------------------------|
 G-----------------------------------------------------------------|
 D-------------------------5-5-5-5---------------------------------|x2
 A---------5-5-5-5-7-7-7-7-----------------------------------------|
 E-7-7-7-7-------------------------5-5-5-5-5-5-5-5-5-5-5-5-5-5-5-5-|

Bridge II

 e-----------------------------------------------------------------|
 B-----------------------------------------------------------------|
 G-0-0-0-0-2-2-2-2-4-4-4-4-4-4-4-4-2-2-2-2-2-----------------0-0---|
 D-------------------------------------------0-0-1-2-2-2-2-2-------|
 A-----------------------------------------------------------------|
 E-----------------------------------------------------------------|

 e-----------------------------------------------------------------|
 B-----------------------------------------------------------------|
 G-0-0-0-0-2-2-2-2-4-4-4-4-4-0-0-1-2-2-2-2-2-----------------4-----|
 D-------------------------------------------0-0-1-2-2-2-2-2-------|
 A-----------------------------------------------------------------|
 E-----------------------------------------------------------------|

Thanks.
Tap to rate this tab
# A B C D E F G H I J K L M N O P Q R S T U V W X Y Z