Guitaretab - guitar tabs
Song name
# A B C D E F G H I J K L M N O P Q R S T U V W X Y Z

Interpol - Antics tab

Interpol - Antics

Band: Interpol
Album: Antics
Tuning: Standard => EADGBe
Notes: 	Guitar 1: Michael
	Guitar 2: Sam

Tracklist:	01: Next Exit
		02: Evil
		03: Narc
		04: Take Your Hands On A Cruise
		05: Slow Hands
		06: Not Even Jail
		07: Public Pervert
		08: C'Mere
		09: Lenght Of Love
		10: A Time To Be So Small

---------------------------------------------------------------------------

Band: Interpol
Song: Next Exit
Album: Antics
Tuning: Standard => EADGBe
Notes: From Interpol's brilliant sophomore album Antics
Finally it'll be tabbed!!
This is as accurate as possible, and it sounds truthfully great etc.
Tabbed By: Campbell

Church synth/organ sound repeats throughout most:

      C    Am    F    G    C    Am    F    G
e ------------------------------------------------|
b ----8~~~~10~~~~6~~~~8~~~~8~~~~10~~~~6~~~~8~~~~--|
g ----9~~~~-9~~~~5~~~~7~~~~9~~~~-9~~~~5~~~~7~~~~--| ad nauseam
d ------------------------------------------------|
a ------------------------------------------------|
e ------------------------------------------------|
                        C    Am     G     F
(or if you prefer)e -------------------------------|
                  b ----8~~~~10~~~~10~~~~12~~~~----|
                  g ----9~~~~-9~~~~10~~~~12~~~~----| obviously let ring
                  d -------------------------------|
                  a -------------------------------|
                  e -------------------------------|
The notes sound at the same time so fingerpick them at the same time with
first and second fingers rather than using a pick, (get a smoother sound).


Guitar enters (0:24) just after vocal. (Slight distortion and sustain)

   (C)     (Am)      (F)      (G)organ underneath continues with above
e ---------------------------------------------------------------------|
b ---------------------------------------------------------------------|
g --5~~~~5~~/9~~~~9~~\5~~~~5~~/9~~~~9~~\5~~~~5~~/9~~~~9~~\5~~~~5~~\4~~~
d ---------------------------------------------------------------------|
a ---------------------------------------------------------------------|
e ---------------------------------------------------------------------|

Slide back into this progression and repeat:   g ~4~~/5~~~~5~~/9  etc
Play through completely x2 (Use can use octaves if playing by yourself)




Then:
e -------------------------------|
b -------------------------------|
g -5~~~~5~~/9~~~~9~~\5~~~~5~~\4~~
d -------------------------------|
a -------------------------------|
e -------------------------------|

Lead (1:20) x4

e ---------------------------------------------------------------------|
b -8/13~~~~12b(13)-12~~8-8~~8\6~~~~--6/8~~-----------------------------|
g ---------------------------------5------7h8b(9)-7h8b(9)~~~~----------|
d ---------------------------------------------------------------------|
a ---------------------------------------------------------------------|
e ---------------------------------------------------------------------|

It to me so long to get this bit, so I'll walk you perfectionists through some of it. 
strike the 12 whilst bending it up to 13, hold it for a sec, let it down silently then 
the 12 again, (So you don't strike it on the way down) // Hammer on from the 7 to the 8
then (without striking it again) bend slowly up to the 9, hold it; repeat this but the
2nd  hold the note you've bent up from the 8th fret. Resume lead progression again at the
bend on fret 12 for repeats.


Synth notes (2:06)
                           (or)
e -------------------------  e ------------------------| again pick both
b -------------------------  b ------------------------| notes @ once
g -------------------------  g --5~~~~9~~~~5~~~~4~~~~--|
d -------------------------  d ------------------------|
a --3~~~~7~~~~3~~~~2~~~~---  a --3~~~~7~~~~3~~~~2~~~~--|
e -------------------------  e ------------------------|


Enter lush guitar (2:16): x4 (+ one last strike of the C)

     C      Am        F      G
e ---8~~~~8~~8~~~~8~~~8~~~~8~7~~~~~--|
b ---8~~~~8~10~~~~10~10~~~10~8~~~~~--|
g ---9~~~~9~~9~~~~9~~10~~~10~7~~~~~--|
d --10~~~10~~7~~~~7~~10~~~10~9~~~~~--|
a -----------------------------------|
e -----------------------------------|

of course you can mix up the finger positions or not strike all the notes:
           C  Am F  F  F  G  G  G
       e --3--5--1--5--5--3--7------------------|
       b --5--5--1--6--6--3--8--10--------------|
e.g.   g --5--5--2--5--5--4--7--10--------------| etc.
       d --5--7--3--3--7--5--5--10--------------|
       a ---------------------------------------|
       e ---------------------------------------|

while Paul sings the organ underneath plays these notes (2:40)
   (C)  (Am)  (F)  (G)
e -------------------------|
b -------------------------| x2
g --5~~~~~~~~~~~~~~~4~~~~--|

Then the organ plays the churchish refrain from the start and verses(3:01)
      C    Am    F       G        Finish
e ------------------------------------------------|
b ----8~~~~10~~~~10~~~~12~~13~~15~~~~~~-----------|
g ----9~~~~-9~~~~10~~~~12~~12~~12~~~~~~-----------|
d ------------------------------------------------|
a ------------------------------------------------|
e ------------------------------------------------|

Band: Interpol
Song: Evil
Album: Antics
Tuning: Standard => EADGBe
Notes: /
Tabbed By: Campbell

Bass Intro: x10 (Drums kick in after 4th)

e --------------------------------------|
b --------------------------------------|
g --------------------------------------|
d --------------------------------------|
a --8---8-8---------------5-5-----------|
e ----------6-6-6-5---5-5-----5---------|


Verse:                                       Second Guitar Plays this
Guitar: (x3)                                 under last 2 strums of D5
                                             4 times during both verses:
    F5          Bb5  A5    D5   A5
     d x  u  d u d u d x u d u d u                       let ring
e -------------------------------------        e ----------------|
b -------------------------------------        b ----------------|
g --10---10-10-----------7-7-7-7-------        g ---10-10--------|
d --10---10-10-8-8-8-7---7-7-7-7-7-----        d ---10-10--------|
a ---8----8--8-8-8-8-7---5-5-5-5-7-----        a ----------------|
e -------------6-6-6-5-----------5-----        e ----------------|

Last Time :

    F5          Bb5  A5   D5           F5(let ring)
     d x  u  d u d u d
e -------------------------------------------------|
b -------------------------------------------------|
g --10---10-10------------7-7-7-7-7-7--10----------|
d --10---10-10-8-8-8-7----7-7-7-7-7-7--10----------|
a ---8----8--8-8-8-8-7----5-5-5-5-5-5---8----------|
e -------------6-6-6-5-----------------------------|

Intro into chorus:
    (up strum)
e -----------------------------------|
b -----------------------------------|
g ---12-12-10-10-10-10-10------------|
d ---12-12-10-10-10-10-10------------|
a -----------------------------------|
e -----------------------------------|
Chorus:

     F5(x8)  D5(x8)  Bb5(x8)  A5(x8)   C5(x8)  Bb5(x8)

e -------------------------------------------------------|
b -------------------------------------------------------|
g ---10------7-------------------------------------------|
d ---10------7--------8-------7--------10-------8--------|
a ----8------5--------8-------7--------10-------8--------|
e --------------------6-------5---------8-------6--------|

Bass (x2)
e -------------------------------------------------------|
b -------------------------------------------------------|
g -------------------------------------------------------|
d -------------------------------------------------------|
a --8---8-8---------------5-5----------------------------|
e ----------6-6-6-5---5-5-----5--------------------------|

Lead (x4)
e -------------------------------------------------------|
b ------10----10----10----10---10---10---10---10---------|
g ---10----10----10----10----9----9----7----7------------|
d -------------------------------------------------------|
a -------------------------------------------------------|
e -------------------------------------------------------|


Verse2
Guitar: (x3)

    F5          Bb5  A5    D5   A5
     d x  u  d u d u d x u d u d u
e ---------------------------------------|
b ---------------------------------------|
g --10---10-10-----------7-7-7-7---------|
d --10---10-10-8-8-8-7---7-7-7-7-7-------|
a ---8----8--8-8-8-8-7---5-5-5-5-7-------|
e -------------6-6-6-5-----------5-------|

Last Time :

    F5          Bb5  A5   D5           F5(let ring)
     d x  u  d u d u d
e ---------------------------------------------------|
b ---------------------------------------------------|
g --10---10-10------------7-7-7-7-7-7--10------------|
d --10---10-10-8-8-8-7----7-7-7-7-7-7--10------------|
a ---8----8--8-8-8-8-7----5-5-5-5-5-5---8------------|
e -------------6-6-6-5-------------------------------|

Intro into chorus #2:
    (up strum)
e ------------------------------|
b ------------------------------|
g ---12-12-10-10-10-10-10-------|
d ---12-12-10-10-10-10-10-------|
a ------------------------------|
e ------------------------------|

Chorus: (x2)

     F5(x8)  D5(x8)  Bb5(x8)  A5(x8)   C5(x8)  Bb5(x8)

e -------------------------------------------------------|
b -------------------------------------------------------|
g ---10------7-------------------------------------------|
d ---10------7--------8-------7--------10-------8--------|
a ----8------5--------8-------7--------10-------8--------|
e --------------------6-------5---------8-------6--------|

After 2nd Chorus: (x4)
e ------------------------------|
b ------------------------------|
g ---10---10-10---9---7-7-------|
d ---10---10-10---7---7-7-------|
a ------------------------------|
e ------------------------------|

Lead (x6)
e ---------------------------------------------------|
b ------10----10----10----10---10---10---10---10-----|
g ---10----10----10----10----9----9----7----7--------|
d ---------------------------------------------------|
a ---------------------------------------------------|
e ---------------------------------------------------|
Octaves (x2) rhythm over top of last 2 lines of above lead
             downstrums; slide up octaves
    (x4)  (x4)  (x8)
e --------------------------------------|
b --------------------------------------|
g --10----12----14----------------------|
d ---x-----x-----x----------------------|
a ---8----10----12----------------------|
e --------------------------------------|

Final Chorus: (x2)

     F5(x8)  D5(x8)  Bb5(x8)  A5(x8)   C5(x8)  Bb5(x8)

e --------------------------------------------------------|
b --------------------------------------------------------|
g ---10------7--------------------------------------------|
d ---10------7--------8-------7--------10-------8---------|
a ----8------5--------8-------7--------10-------8---------|
e --------------------6-------5---------8-------6---------|

I can hear faint lead under the last chorus which i play on g string:
 (strike repeatedly with downward plucks, slide between, ad lib).

g ----10------7------15-------14-------17-------15

Finish: (x2)

    C5(x8) D5(x8)                 F5 let ring
e -----------------------    e ---------------|
b -----------------------    b ---------------|
g -----------------------    g --10-----------|
d --10-----12------------    d --10-----------|
a --10-----12------------    a ---8-----------|
e ---8-----10------------    e ---------------|

During the chorus some chords seem to ring, to achieve this simply play the actual chord 
the D5 & A5; add on the bottom 3 strings to make Dm & Am.
   Dm      Am
e --5--   --5--|
b --6--   --5--|
g --7-- & --5--|
d --7--   --7--|
a --5--   --7--|
e -----   --5--|

Note:
u = up strum
d = down strum
x = palm mute (or muffled string)

 
Band: Interpol
Song: Narc
Album: Antics
Tuning: Standard => EADGBe
Notes: VERSION 1
| /  slide up
| \  slide down
| h  hammer-on
| p  pull-off
| ~  vibrato
| +  harmonic
| x  Mute note
Tabbed By: Bert (kline.159@osu.edu)

Verse
e|---------------------------------|
B|---------------------------------|
G|---------------------------------|
D|-------2-4-5--5------2-4-5-7-5---|
A|---2-------------2---------------|
E|---------------------------------|

In verse
e|---7---|
B|---7---|
G|---7---|
D|---9---|
A|-------|
E|-------|

Chorus
e|---7---10--12--|
B|---7---7---7---|
G|---7---7---7---|
D|---------------|
A|---------------|
E|---------------|

Later
e|--------|
B|---12---|
G|---12---|
D|---14---|
A|--------|
E|--------|

e|---3-2-0-----|
B|---------3---|
G|-------------|
D|-------------|
A|-------------|
E|-------------|

e|-----------------------------------------------------|
B|-----------------------------------------------------|
G|-----------------------------------------------------|
D|---4-4-4-4-4-4-4-4-5-5-5-5-5-5-5-5-2-2-2-2-2-2-2-2---|
A|-----------------------------------------------------|
E|-----------------------------------------------------|

e|-------------------------------|
B|-------------------------------|
G|-------------------------------|
D|---4-4-4-4-4-4-4--5--4--2--4--2|
A|-------------------------------|
E|-------------------------------|

Band: Interpol
Song: Narc
Album: Antics
Tuning: Standard => EADGBe
Notes: VERSION 2
Tabbed By: irotinmyskin (irotinmyskin@hotmail.com)

Main riff (Daniel):
----------------------------|
----------------------------|
----------------------------|
-----------------------7----|
---7-9-10-10-----7-9-10--10-|
7-------------7-------------|

VERSE (Paul)                       (Paul)
"Touch Your Thighs im..."     "show some love & respect"
e---------------------|          e---------|
b---------------------|          b---------|
g--7~---/-4~-/--11~---|          g-7~-/-4~-|
d--7~---/-4~-/--11~---|          d-7~-/-4~-|     x2
a--5~---/-2~-/---9~---|          a-5~-/-2~-|
e---------------------|          e---------|

 (Paul)
"baby you can see that the gazing eye won't lie"
e---2--2---2--2---2--------|
b---3--3---3--3---3----x---|
g-4-4--4-4-4--4-4-4-4--x---| <-listen carefully to get the rythm..
d-4----4-4-4-x--4---4--x---|
a-2----2-2-2-x--2---2--x---|
e--------------------------|

CHORUS (Paul):
"She found a lonely sound"
e-7--//-7-//-7-//-7-7-7-7-7-7-7-7---|
b-7--//-7-//-7-//-8-7-8-7-8-7-8-7---|
g-7--//-9-//-9-//-7-7-7-7-7-7-7-7---|
d-9--//-7-//-9-//-9-9-9-9-9-9-9-9---|
a-10-//---//-7-//-7-7-7-7-7-7-7-7---|
e-7--//---//---//-------------------|

CHORUS(Daniel): (slight dist)
e|-10-------------10-------------12-------------10-|
B|-------------------------------------------------|
G|-7--------------7--------------9---------------7-|
D|------------------------------------------------| x4
A|-------------------------------------------------|
E|-------------------------------------------------|
....Then another VERSE exactly the same as the first one but shorter.

interlude or breakdown (Paul):
   1&e  2&e  3&e  4&e
e--x-7--x-7--x-7--x-7--|
b--x-8--x-8--x-8--x-8--|
g--x-7--x-7--x-7--x-7--|
d--x-9--x-9--x-9--x-9--|
a--x-7--x-7--x-7--x-7--|
e----------------------|

While daniel does:
e---------------|---|
b----8-7----8---|---|
g-9-7----7-9--------|
d---------------|---|
a---------------|---|
e---------------|---|
...then paul keeps on doing e7 chord with a slight variation till the end:

"He slips into the bedroom..."
e--7--x-7-7--x-7--x-7-7-x-7--|
b--8--x-8-8--x-8--x-8-8-x-8--|
g--7--x-9-9--x-7--x-9-7-x-7--|
d--9--x-9-9--x-9--x-9-9-x-9--|
a--7--x-7-7--x-7--x-7-7-x-7--|
e----------------------------|

Daniel:
e------------------------------------------------------|
b------------------------------------------------------|
g------------------------------------------------------|
d------------------------------------------------------|
a-9-9-9-9-9-9-9-9-10-10-10-10-10-10-10-10-7-7-7-7-7-7-7-|
E-------------------------------------------------------|

then:
e------------------------|
b------------------------|
g------------------------|
d------------------------|
a-9-9-9-9-9-10-9-7-9-7-9--|
E-------------------------|
 
Band: Interpol
Song: Take You On A Cruise
Album: Antics
Tuning: Standard => EADGBe
Notes: Ahh... okay my last version mostly sucked. Here's the parts
of mine that i managed to get right joined with the guitar pro version.
Tabbed By: UnsignedRecords

Verse 
Guitar 1 (delay effect)
e|---------------------------------------|
B|---------------------------------------|
G|---------------------------------------|
D|-9~~~-7~~~-/14~~~-12~~~-(x3)-11--12~~~-|
A|---------------------------------------|
E|---------------------------------------|

Guitar 2 (light distortion) I split it so it's easier to read.
"I'm timeless like a broken watch..."
e|-------------|-------------|-----------------|---------------|
B|-7-7-x-7-x-7-|-7-7-7-7-7-x-|-8-8-8-x-x-8-x-8-|-8-8-x-x-8-8-x-|
G|-7-7-x-7-x-7-|-7-7-7-7-7-x-|-9-9-9-x-x-9-x-9-|-7-7-x-x-7-7-x-|
D|-9-9-x-9-x-9-|-7-7-9-9-7-x-|-9-9-9-x-x-9-x-9-|-9-9-x-x-9-9-x-|
A|-------------|-------------|-----------------|----------(x6)-|
E|-------------|-------------|-----------------|---------------|

Pre-Chorus
Guitar 1 (delay effect)
"Baby don't you try to find me..."
e|-------------------------|-------|
B|-------------------------|-------|
G|-------------------------|-------|
D|-14~~~-17~~~-16~~~-14~~~-|-16~~~-|
A|-------------------------|-------|
E|-------------------------|-------|

Guitar 2 (delay effect)
e|-----------------------------------------------------------------|
B|---------------------------------8---8---8---8---7---7---7---7---|
G|-7---7---7---7---6---6---6---6-----9---9---9---9---7---7---7---7-|
D|---9---9---9---9---7---7---7---7---------------------------------|
A|------------------------------------------------------------(x2)-|
E|-----------------------------------------------------------------|

e|-5---5---5---5---5---5---5---5---|
B|-7---7---7---7---7---7---7---7---|
G|---7---7---7---7---7---7---7---7-|
D|---------------------------------|
A|---------------------------------|
E|---------------------------------|
Chorus
Guitar 1 (light distortion)
"Along the way tears drown in the wake of delight..."
e|------------------------9--9--9--9--9---------------------------------|
B|-8-8-8-10-10-8-8-8-8-8-10-10-10-10-10-7-7-7-7-7-7-7-7-7-7-7-7-7-7-7-7-|
G|-9-9-9--9--9-9-9-9-9-9--9--9--9--9--9-7-7-7-7-7-7-7-7-7-7-7-7-7-7-7-7-|
D|-9-9-9--9--9-9-9-9-9-9--9--9--9--9--9-9-9-9-9-9-9-9-9-7-7-7-7-7-7-7-7-|
A|-----------------------------------------------------------------(x4)-|
E|----------------------------------------------------------------------|

Guitar 2 (light distortion)
e|-12--12--12--12--12--12--12--12--10--10--10--10--9--9--9--9-|
B|------------------------------------------------------------|
G|------------------------------------------------------------|
D|------------------------------------------------------------|
A|------------------------------------------------------------|
E|------------------------------------------------------------|
e|-12--12--12--12--12--12--12--12--10--10--10--10--9--9--14--14-|
B|--------------------------------------------------------------|
G|--------------------------------------------------------------|
D|--------------------------------------------------------------|
A|---------------------------------------------------------(x2)-|
E|--------------------------------------------------------------|

Bridge

Guitar 2 (light distortion)
e|------------------------------------------------------------------|
B|-7--7--7--7--7--7--7--7--7--7--7--7--7--7--7--7--8--8--8--8--8--8-|
G|-7--7--7--7--7--7--7--7--7--7--7--7--7--7--7--7--9--9--9--9--7--7-|
D|-9--9--9--9--9--9--9--9--9--9--9--9--7--7--7--7--9--9--9--9--9--9-|
A|------------------------------------------------------------------|
E|------------------------------------------------------------------|

Interlude

Guitar 1 (light distortion)
"I am a scavenger between the sheets of union..."
e|--------------------------------------------------------------------------|
B|-7-7-7-7-7-7-7-7-7-7-7-7-7-7-7-7-8-8-8-8-8-8-8-8-8-8-8-10-10-10-10-10-----|
G|-7-7-7-7-7-7-7-7-7-7-7-7-7-7-7-7-9-9-9-9-9-9-9-9-7-7-7--7--7--7--7--7-----|
D|-9-9-9-9-9-9-9-9-7-7-7-7-7-7-7-7-9-9-9-9-9-9-9-9-9-9-9--9--9--9--9--9-----|
A|---------------------------------------------------------------------(x4)-|
E|--------------------------------------------------------------------------|

Guitar 2 (light distortion)
e|-----------------------------------------------------------------------|
B|-7-7-7-7-7-7-7-7-7-7-7-7-7-7-7-7-8-8-8-8-8-8-8-8-8-8-8-8-8-8-8-8-8-----|
G|-7-7-7-7-7-7-7-7-6-6-6-6-6-6-6-6-9-9-9-9-9-9-9-9-9-9-9-7-7-7-7-7-7-----|
D|-----------------------------------------------------------------------|
A|------------------------------------------------------------------(x4)-|
E|-----------------------------------------------------------------------|

Pre-Chorus then Chorus Again

Bridge 2 

Guitar 2 (light distortion)
"You'll never see a finer ship..."
e|-----------7~~~-|
B|-7~~~-7~~~-8~~~-|
G|-7~~~-7~~~-9~~~-|
D|-7~~~-9~~~-9~~~-|
A|----------------|
E|----------------|

Outro

Guitar 1 (delay effect)    End On
e|------------------------|-------|
B|------------------------|-------|
G|------------------------|-------|
D|-9~~~-7~~~-/14~~~-12~~~-|-14~~~-|
A|------------------------|-------|
E|------------------------|-------|

Guitar 2 (delay effect)        
"White goddess, red goddess..." End On 
e|-----------------------------|-------|
B|-----------------------------|-------|
G|-----------------------------|-------|
D|-9~~~-16~~~-7~~~-17~~~-14~~~-|-17~~~-|
A|-----------------------------|-------|
E|-----------------------------|-------|

Band: Interpol
Song: Take You On A Cruise
Album: Antics
Tuning: Standard => EADGBe
Notes: VERSION 1
Tabbed By: Les Swensen (orgscope@hotmail.com)

Intro

 e---------------------------------|
 B---------------------------------|
 G---------------------------------|
 D---------------------------------| x4 (enter Gtr2 second bar)
 A-----------------2-2-2-2-2-2-2-2-|
 E-3-3-3-3-3-3-3-3-----------------|

Verse

 Guitar 1. (Paul)
 e--------|--------|--------|--------|--------|--------|--------|--------|
 B--------|--------|--------|--------|--------|--------|--------|--------|
 G-7-7-7-7|-7-7-7-7|-7-7-7-7|-7-7-7s-|-5-5-5-5|-5-5-5-5|-4-4-4-4|-4-4-4--|
 D--------|--------|--------|--------|--------|--------|--------|--------|x3
 A-5-5-5-5|-5-5-5-5|-5-5-5-5|-5-5-5s-|-3-3-3-3|-3-3-3-3|-2-2-2-2|-2-2-2--|
 E--------|--------|--------|--------|--------|--------|--------|--------|

 e--------|--------|--------|--------|--------|--------|--------|--------|
 B--------|--------|--------|--------|--------|--------|--------|--------|
 G-7-7-7-7|-7-7-7-7|-7-7-7-7|-7-7-7s-|-5-5-5-5|-5-5-5-5|-4s-----|-9-9-9-9|
 D--------|--------|--------|--------|--------|--------|--------|--------|x1
 A-5-5-5-5|-5-5-5-5|-5-5-5-5|-5-5-5s-|-3-3-3-3|-3-3-3-3|-2s-----|-7-7-7-7|
 E--------|--------|--------|--------|--------|--------|--------|--------|

 Guitar 2. (Dan)
 e--------|--------|--------|--------|--------|--------|--------|--------|
 B--------|--------|--------|--------|--------|--------|--------|--------|
 G--------|--------|--------|--------|--------|--------|--------|--------|
 D--------|--------|--------|--------|--------|--------|--------|--------|x2
 A--------|--------|--------|--------|--------|--------|--------|--------|
 E-3-3-3-3|-3-3-3-3|-3-3-3-3|-3-3-3s-|-5-5-5-5|-5-5-5-5|-0-0-0-0|-0-0-0--|

 e--------|--------|--------|--------|--------|--------|--------|--------|
 B--------|--------|--------|--------|--------|--------|--------|--------|
 G-7-7-7-4|-7-7-7-4|-7-7-7-4|-7-7-7-4|-5-5-5-4|-5-5-5-4|-4-4s--9|-9-9-9-9|
 D--------|--------|--------|--------|--------|--------|--------|--------|x2
 A--------|--------|--------|--------|--------|--------|--------|--------|
 E--------|--------|--------|--------|--------|--------|--------|--------|

Bridge 1

 Guitar 2. (Dan)
 e----------------------------------------------------------------|
 B----------------------------------------------------------------|
 G----------------------------------------------------------------|
 D-------------------------5-5-5-5--------------------------------|x2
 A-2-2-2-2-5-5-5-5-7-7-7-7---------0-0-0-0-0-0-0-0-0-0-0-0-0-0-0-0|
 E----------------------------------------------------------------|

 Guitar 1. (Paul)
 e----------------------------------------------------------------|
 B----------------------------------------------------------------|
 G--------------------------------------------------------(9 9)9-9|
 D-------------------------------------------------------9-9-9-9-9|
 A-------------------------------------------------------7-7-7-7-7|
 E----------------------------------------------------------------|


 e------------------------------------------------
 B-12-12-12-12-10-10-10-10------------------------
 G-------------------------12-12-12s--9-9-9s--7-7-
 D-9--9--9--9--7--7--7--7-------------------------
 A-------------------------10-10-10s--7-7-7s--5-5-
 E------------------------------------------------

 -----------------------------|
 -----------------------------|
 --------------777-7-7-7-7-7-7|
 7-7-7-7-7-7-7----------------|
 --------------555-5-5-5-5-5-5|
 5-5-5-5-5-5-5----------------|

Chorus

 Guitar 1. (Paul) V = Downstrokes U = upstrokes 
 e-V--V--V-U-V-U--V--V--V-U-V-U--V--V--V-U-V-U--V--V-V-etc-|
 B---------------------------------------------------------|
 G-11-11-11111111-11-11-11111111-11-11-11111111-11-9-9-----|
 D---------------------------------------------------------|
 A-9--9--9-9-9-9--9--9--9-9-9-9--9--9--9-9-9-9--9--7-7-----| |
 E---------------------------------------------------------| |
                                                             |x2
 e---------------------------------------------------------| |
 B---------------------------------------------------------| |
 G-999-9-9999-9-9-9999-9-9-9999-9-7-7----------------------|
 D---------------------------------------------------------|
 A-777-7-7777-7-7-7777-7-7-7777-7-5-5----------------------|
 E---------------------------------------------------------|

 Guitar 2. (Dan)
 e---------------------------------------------------------|
 B---------------------------------------------------------|
 G---------------------------------------------------------|
 D-9-9-9999-9-9-9999-7-7-7777-7-7-7------------------------|
 A---------------------------------------------------------| |
 E-7-7-7777-7-7-7777-5-5-5555-5-5-5------------------------| |
                                                             |x2
 e---------------------------------------------------------| |
 B---------------------------------------------------------| |
 G-9-9-9999-9-9-9999-9-7-7-7-7-7-7-------------------------|
 D---------------------------------------------------------|
 A-7-7-7777-7-7-7777-7-5-5-5-5-5-5-------------------------|
 E---------------------------------(3)(<- end chorus with this)

Verse
 same
Bridge 1
 same
Chorus
 same, except end with:
 Guitar 1. (Dan)
 D--------------------------|
 A-9----9----9--9--9--9s(0)-|
 E--------------------------|

Bridge 2

 Guitar 1. (Paul)
 e-----------------------------------------------------------------|
 B-----------------------------------------------------------------|
 G-----------------------------------------------------------------|
 D-5-5-5-5-7-7-7-7-9-9-9-9-9-9-9-9-7-7-7-7-7-----------------5-5---|
 A-------------------------------------------5-5-6-7-7-7-7-7-------|
 E-----------------------------------------------------------------|


 e-----------------------------------------------------------------|
 B-----------------------------------------------------------------|
 G-----------------------------------------------------------------|
 D-5-5-5-5-7-7-7-7-9-9-9-9-9-5-5-6-7-7-7-7-7-----------------------|
 A-------------------------------------------5-5-6-7-7-7-7-7-------|
 E-----------------------------------------------------------------|

 Guitar 2. (Dan) End with:
 D-5s9-|

Chorus
 Guitar 1. (Paul)
 e---------------------------------------------------------|
 B---------------------------------------------------------|
 G-11-11-11111111-11-11-11111111-11-11-11111111-11-9-9-----|
 D---------------------------------------------------------|
 A-9--9--9-9-9-9--9--9--9-9-9-9--9--9--9-9-9-9--9--7-7-----|
 E---------------------------------------------------------|
[ Tab from: http://www.guitaretab.com/i/interpol/58398.html ]
 e---------------------------------------------------------|
 B---------------------------------------------------------|
 G-999-9-9999-9-9-9999-9-9-9999-9-7-7----------------------|
 D---------------------------------------------------------|
 A-777-7-7777-7-7-7777-7-7-7777-7-5-5----------------------|
 E---------------------------------------------------------|

 e---------------------------------------------------------|
 B---------------------------------------------------------|
 G-11-11-11111111-11-11-11111111-11-11-11111111-11-9-9-----|
 D---------------------------------------------------------|
 A-9--9--9-9-9-9--9--9--9-9-9-9--9--9--9-9-9-9--9--7-7-----|
 E---------------------------------------------------------|

 e---------------------------------------------------------|
 B---------------------------------------------------------|
 G-999-9-9999-9-9-9999-9-9-9-121212-141414-----------------|
 D---------------------------------------------------------|
 A-777-7-7777-7-7-7777-7-7-7-101010-121212-----------------|
 E---------------------------------------------------------|

 e---------------------------------------------------------|
 B---------------------------------------------------------|
 G-16-16-16161616-16-16-16-1616-16-16-16161616-16-16-16-..-|
 D---------------------------------------------------------| etc till ending
 A-14-14-14141414-14-14-14-1414-14-14-14141414-14-14-14-..-|
 E---------------------------------------------------------|

 Guitar 2. (Dan)
 e---------------------------------------------------------|
 B---------------------------------------------------------|
 G---------------------------------------------------------|
 D-9-9-9999-9-9-9999-7-7-7777-7-7-7------------------------|
 A---------------------------------------------------------|
 E-7-7-7777-7-7-7777-5-5-5555-5-5-5------------------------|

 e---------------------------------------------------------|
 B---------------------------------------------------------|
 G-9-9-9999-9-9-9999-9-7-7-7-7-7-7-------------------------|
 D---------------------------------------------------------|
 A-7-7-7777-7-7-7777-7-5-5-5-5-5-5-------------------------|
 E---------------------------------------------------------|

 e---------------------------------------------------------|
 B---------------------------------------------------------|
 G---------------------------------------------------------|
 D-9-9-9999-9-9-9999-7-7-7777-7-7-7------------------------|
 A---------------------------------------------------------| |
 E-7-7-7777-7-7-7777-5-5-5555-5-5-5------------------------| |
                                                             |x3
 e---------------------------------------------------------| |
 B---------------------------------------------------------| |
 G-9-9-9999-9-9-9999-11-11-11-11-11-11-11------------------|
 D---------------------------------------------------------|
 A-7-7-7777-7-7-7777-9--9--9--9--9--9--9-------------------|
 E---------------------------------------------------------|
 
Band: Interpol
Song: Take You On A Cruise
Album: Antics
Tuning: Standard => EADGBe
Notes: VERSION 2
Live Version Tab (Bridge 1 and 2)
I made this for the bridges actually..though this is just the way
Daniel Kessler plays them live. Or so I believe since it sounds
too much different from live to the album song, though maybe the
Bridge I here is the right one in the record too. You should play
it anyway you like to, it still sounds good, and it's a really cool
song. Good luck!
Tabbed By: Gustavo Flores (ethos_worm@hotmail.com)

Bridge I
 e-----------------------------------------------------------------|
 B-----------------------------------------------------------------|
 G-----------------------------------------------------------------|
 D-------------------------5-5-5-5---------------------------------|x2
 A---------5-5-5-5-7-7-7-7-----------------------------------------|
 E-7-7-7-7-------------------------5-5-5-5-5-5-5-5-5-5-5-5-5-5-5-5-|

Bridge II

 e-----------------------------------------------------------------|
 B-----------------------------------------------------------------|
 G-0-0-0-0-2-2-2-2-4-4-4-4-4-4-4-4-2-2-2-2-2-----------------0-0---|
 D-------------------------------------------0-0-1-2-2-2-2-2-------|
 A-----------------------------------------------------------------|
 E-----------------------------------------------------------------|

 e-----------------------------------------------------------------|
 B-----------------------------------------------------------------|
 G-0-0-0-0-2-2-2-2-4-4-4-4-4-0-0-1-2-2-2-2-2-----------------4-----|
 D-------------------------------------------0-0-1-2-2-2-2-2-------|
 A-----------------------------------------------------------------|
 E-----------------------------------------------------------------|


Band: Interpol
Song: Not Even Jail
Album: Antics
Tuning: Standard => EADGBe
Notes: I Couldn't Find This Tab, except On Guitarpro,
but that one my computer couldn't open...
 
Band: Interpol
Song: Public Pervert
Album: Antics
Tuning: Standard => EADGBe
Notes: /
Tabbed by: Sean Konagaya (MeeCexii@hotmail.com)

(0:01)
Guitar1             Guitar2
|-------------------|------------------|
|-------------------|--10--1010--1010--|
|-------------------|--10--1010--1010--|
|-------------------|--10--1010--1010--|
|--87--8-----87--8--|------------------|
|-------------------|------------------|

Guitar1      Guitar2
|------------|--------------------------|
|------------|--8---8-8---8-8-----------|
|------------|--9---9-9---9-9-----------|
|-----------|--10--1010--1010----------|
|--88-77-88--|--------------------------|
|------------|--------------------------|

Guitar1      Guitar2
|------------|------------------|
|------------|--10--1010--1010--|
|------------|--10--1010--1010--|
|-----------|--10--1010--1010--|
|--88-77-88--|------------------|
|------------|------------------|

Guitar1      Guitar2
|------------|--------------------------|
|------------|--8---8-8---8-8-----------|
|------------|--9---9-9---9-9-----------|
|-----------|--10--1010--1010----------|
|--88-77-88--|--------------------------|
|------------|--------------------------|

Guitar1      Guitar2
|------------|------------------|
|------------|--10--1010--1010--|
|------------|--10--1010--1010--|
|------------|--10--1010-1010--|
|--55-77-88--|------------------|
|------------|------------------|

Guitar1      Guitar2
|------------|--------------------------|
|------------|--8---8-8---8-8-----------|
|------------|--9---9-9---9-9-----------|
|-----------|--10--1010--1010----------|
|--88-77-88--|--------------------------|
|------------|--------------------------|

Guitar1      Guitar2
|------------|------------------|
|------------|--10--1010--1010--|
|------------|--10--1010--1010--|
|------------|--10--1010--1010--|
|--88-77-88--|------------------|
|------------|------------------|




Guitar1      Guitar2
|------------|--------------------------|
|------------|--8---8-8---8-8-----------|
|------------|--9---9-9---9-9-----------|
|-----------|--10--1010--1010----------|
|--88-77-88--|--------------------------|
|------------|--------------------------|

(0:42)
Guitar1
|--------------------------|-
|--------------------------| |
|--------------------------| |
|--------------------------| |
|--8/10-8-55-555-55-------| |
|--------------------------| |
Guitar2                      |-Synchronized 
|--------------------------| |
|------------------13------| |
|------------------14------| |
|------------------15------| |
|--------------------------| |
|--------------------------|-

|-------------|-
|-------------| |
|-------------| |
|-------------| |
|--00-000-00--| |
|-------------| |
                |-Synchronized
|-------------| |
|----------8--| |
|----------9--| |
|----------10-| |
|-------------| |
|-------------|-

(0:52)
Guitar1
|----------|
|----------|
|----------|
|----------|
|--8/10-8-|
|----------|
Guitar 1 and 2
|-----------------------------------------|
|-----------------------------------------|
|-----------------------------------------|
|--33333333-222-55555-----33333-77777777--|
|--11111111-000-33333-555-11111-55555555--|
|---------------------333-----------------|
Guitar2
|-----------------------------------------|-
|-----------------------------------------| |
|-----------------------------------------| |
|--33333333-222-55555-----33333-77777777--| |
|--11111111-000-33333-555-11111-55555555--| |
|---------------------333-----------------| |
                                            |
Guitar1                                     |
|-----------------------------------------| |
|-----------------------------------------| |
|-----------------------------------------| |
|-----------------------------------------| |-syn. X2
|--88888888-777-101010101010101010101010--| |
|-----------------------------------------| |
|-----------------------------------------| |
|-----------------------------------------| |
|-----------------------------------------| |
|-----------------------------------------| |
|--55555555-------------------------------| |
|-----------------------------------------|-

(1:22)
Guitar1             Guitar2
|---------|------------------------------|
|---------|--10--1010--1010---10---10---|
|---------|--10--1010--1010-10---10--10--|
|---------|--10--1010--1010--------------|
|--87--8--|------------------------------|
|---------|------------------------------|

Guitar1      Guitar2
|------------|-------------------------|
|------------|--8---8-8---8-8---8--8---|
|------------|--9---9-9---9-9--9--9-9--|
|-----------|--10--1010--1010---------|
|--88-77-88--|-------------------------|
|------------|-------------------------|

Guitar1             Guitar2
|------------|------------------------------|
|------------|--10--1010--1010---10---10---|
|------------|--10--1010--1010-10---10--10--|
|------------|--10--1010--1010--------------|
|--88-77-88--|------------------------------|
|------------|------------------------------|

Guitar1      Guitar2
|------------|------------------|
|------------|--8---8-8---8-8---|
|------------|--9---9-9---9-9---|
|-----------|--10--1010--1010--|
|--88-77-88--|------------------|
|------------|------------------|
(1:44)
Guitar1
|--------------------------|-
|--------------------------| |
|--------------------------| |
|--------------------------| |
|--8/10-8-55-555-55-------| |
|--------------------------| |
Guitar2                      |-Synchronized 
|--------------------------| |
|------------------13------| |
|------------------14------| |
|------------------15------| |
|--------------------------| |
|--------------------------|-

|-------------|-
|-------------| |
|-------------| |
|-------------| |
|--00-000-00--| |
|-------------| |
                |-Synchronized
|-------------| |
|----------8--| |
|----------9--| |
|----------10-| |
|-------------| |
|-------------|-
(1:54)
Guitar1
|----------|
|----------|
|----------|
|----------|
|--8/10-8-|
|----------|

Guitar 1 and 2
|-----------------------------------------|
|-----------------------------------------|
|-----------------------------------------|
|--33333333-222-55555-----33333-77777777--|
|--11111111-000-33333-555-11111-55555555--|
|---------------------333-----------------|

Guitar2
|-----------------------------------------|-
|-----------------------------------------| |
|-----------------------------------------| |
|--33333333-222-55555-----33333-77777777--| |
|--11111111-000-33333-555-11111-55555555--| |
|---------------------333-----------------| |
                                            |
Guitar1                                     |
|-----------------------------------------| |
|-----------------------------------------| |
|-----------------------------------------| |
|-----------------------------------------| |-syn. X3
|--88888888-777-101010101010101010101010--| |
|-----------------------------------------| |
                                            |
|-----------------------------------------| |
|-----------------------------------------| |
|-----------------------------------------| |
|-----------------------------------------| |
|--55555555-------------------------------| |
|-----------------------------------------|-

(2:35)
Guitar1
|------------------|
|------------------|
|------------------|
|------------------|
|--8---7---10---5--|
|------------------|

Guitar1
|------------------|
|------------------|
|------------------|
|------------------|
|--8---7---10---5b-|
|------------------|

Bass and drums goes on for a bit

(3:13)
Guitar2
|---------------------------|-
|---------------------------| |
|--101010101010101010101010-| |
|---------------------------| |
|---------------------------| |
|---------------------------| |
Guitar1                       |-syn.
|---------------------------| |
|---------------------------| |
|---------------------------| |
|---------------------------| |
|--888888-77-10101010-5555--| |
|---------------------------|-
(Note: every note is play as sixteenth notes.)
Guitar2
|---------------------------|-
|---------------------------| |
|--9/SlideSlowlyNearEnd/18--| |
|---------------------------| |
|---------------------------| |
|---------------------------| |
Guitar1                       |-syn.
|---------------------------| |
|---------------------------| |
|---------------------------| |
|---------------------------| |
|--888888-77-10101010-5555--| |
|---------------------------|-
(Note: every note is play as sixteenth notes.)

Guitar2
|-----------------------------------|-
|--15--1515--1515--1515-------------| |
|--14--1412--1212--1212-------------| |
|--------------15--1512-------------| |
|-----------------------------------| |
|-----------------------------------| |
Guitar1                               |-syn.
|-----------------------------------| |
|-----------------------------------| |
|--101010101010-99-12121212-7777----| |
|-----------------------------------| |
|-----------------------------------| |
|-----------------------------------|-
(Note: every note is play as sixteenth notes.)
Guitar2
|-----------------------------------|-
|--15--1515--1515--1515-------------| |
|--14--1412--1212--1212-------------| |
|--------------15--1512-------------| |
|-----------------------------------| |
|-----------------------------------| |
Guitar1                               |-syn.
|-----------------------------------| |
|-----------------------------------| |
|--101010101010-99-121212-14-7777---| |
|-----------------------------------| |
|-----------------------------------| |
|-----------------------------------|-
(Note: every note is play as sixteenth notes.)
 (3:50)
Guitar1
|-----------------------------------------|
|-----------8-----------------------------|
|--7-9-10-9---10-9-10-9-7-----------------|
|---7-7--7-7-7--7-7-----------------------|
|-----------------------------------------|
|-----------------------------------------|
Guitar1
|-----------------------------------------|
|-----------8------10---------------------|
|--7-9-10-9---10-9------------------------|
|---7-7--7-7-7--7-7-----------------------|
|-----------------------------------------|
|-----------------------------------------|
(4:00)
Guitar1
|--------------------------|-
|-----------8--------------| |
|--7-9-10-9---10-9-10-9-7--| |
|---7-7--7-7-7--7-7--------| |
|--------------------------| |
|--------------------------| |
                             |
|--------------------------| |
|-----------8------10------| |
|--7-9-10-9---10-9---------| |
|---7-7--7-7-7--7-7--------| |
|--------------------------| |
|--------------------------| |
                             |-Syc. 3x
                             |
Guitar2                      |
|--------------------------| |
|--------------------------| |
|--977-977-97-977-977-97---| |
|--------------------------| |
|--------------------------| |
|--------------------------| |
                             |
|--------------------------| |
|--------------------------| |
|--977-977-97-977-977-97---| |
|--------------------------| |
|--------------------------| |
|--------------------------|-
 
Band: Interpol
Song: C'Mere
Album: Antics
Tuning: Standard => EADGBe
Notes: /
Tabbed by: Les Swensen (morgscope@hotmail.com)

Intro
 e--------------------------------------|
 B--------------------------------------|
 G--------------------------------------|
 D-10--10-10---10--10-10---7--7-7---7---|
 A-8---8--8----8---8--8----5--5-5---5---|
 E--------------------------------------|

Verse 1
             x4        x4
 e-------------|---------|
 B-------------|---------|
 G-------------|---------|
 D-10-10-10-10-|-7-7-7-7-|
 A-8--8--8--8--|-5-5-5-5-|
 E-------------|---------|
                                  x1        x4
 e----------------------------------|---------|
 B----------------------------------|---------|
 G----------------------------------|---------|
 D-1010--101010--101010--1010101010-|-7-7-7-7-|
 A-8-8---8-8-8---8-8-8---8-8-8-8-8--|-5-5-5-5-|
 E----------------------------------|---------|

 e-5-5---5-5-5---5-5-5---5-5-5-5-|
 B-5-5---5-5-5---5-5-5---5-5-5-5-|
 G-5-5---5-5-5---5-5-5---5-5-5-5-|
 D-7-7---7-7-7---7-7-7---7-7-7-7-|
 A-------------------------------|
 E-------------------------------|

 e-3-3---3-3-3---3-3-3---3-3-3-3-|
 B-3-3---3-3-3---3-3-3---3-3-3-3-|
 G-3-3---3-3-3---3-3-3---3-3-3-3-|
 D-5-5---5-5-5---5-5-5---5-5-5-5-|
 A-------------------------------|
 E-------------------------------|

Verse 2 (Like Verse 1, but with slight variation on last chords + Guitar2 fill.)

 Gtr2. fill:
 e-8-------8-------8----8-------8-------8-----|
 B---10-10---10-10---10---10-10------10---10--|

 e---8------8----8---10-------8------8----|
 B-8-----10---10--------10-10-----10---10-|

 e-8-------8-------8----8-------8-------8-----|
 B---10-10------10---10---10-10------10---10--|

 e-8-------8-------8----10-------8-------8----|
 B---10-10---10-10---10----10-10---10-10---10-|

 Gtr1. chords:
 e-5-5---5-5-5---5-5-5---5-5-5-5-|
 B-5-5---5-5-5---8-8-8---5-5-5-5-|
 G-5-5---5-5-5---5-5-5---5-5-5-5-|
 D-7-7---7-7-7---7-7-7---7-7-7-7-|
 A-------------------------------|
 E-------------------------------|

 e-3-3---3-3-3---3-3-3---3-3-3-3-|
 B-3-3---3-3-3---6-6-6---3-3-3-3-|
 G-3-3---3-3-3---3-3-3---3-3-3-3-|
 D-5-5---5-5-5---5-5-5---5-5-5-5-|
 A-------------------------------|
 E-------------------------------|

Bridge 1
                                    x2
 D-7~7~7~7|~7~7~7~7|~7~7~7~7|~7~7~7~8|

 D-7~7~7~7|~7~7~7~7|~7~7~7~7|~7~7~7~7|

Verse 3 (Like Verse 2, but with variatons on Guitar2 fill and rhythm on first chords)

 Gtr2. fill
 e-8-------8-------8----8-------8-------8-----|
 B---10-10------10---10---10-10---10-10---10--|

 e-10------8-------8----10-------8-------8----|
 B---10-10------10---10----10-10---10-10---10-|

 e-8-------8-------8----8-------8-------8-----|
 B---10-10------10---10---10-10---10-10---10--|

 e-8-------8-------8----10-------8-------8----|
 B---10-10---10-10---10----10-10---10-10---10-|

 Gtr1. rhythm first chords:
             X4                  X2
 e-------------|-------------------|
 B-------------|-------------------|
 G-------------|-------------------|
 D-10-10-10-10-|-7-7-7-7-77--(7-7)-|
 A-8--8--8--8--|-5-5-5-5-55--(5-5)-|
 E-------------|-------------------|
                           x2        x4
 e---------------------------|---------|
 B---------------------------|---------|
 G---------------------------|---------|
 D-10-10-10-10-1010--(10-10)-|-7-7-7-7-|
 A-8--8--8--8--8-8---(8--8-)-|-5-5-5-5-|
 E---------------------------|---------|

Bridge 2
                                    x3
 D-7~7~7~7|~7~7~7~7|~7~7~7~7|~7~7~7~8|

 D-7~7~7~7|~7~7~7~7|~7-

Chorus
                         x4
 e-----------------5---5-5-|
 B-----------------5---5-5-|
 G-----------------5---5-5-|
 D-----------------7---7-7-|
 A----8-8-5-5--------------|
 E-6----------0-5----------|
Verse 4
             X4        X4
 e-------------|---------|
 B-------------|---------|
 G-------------|---------| X2 (add Gtr2. fill second time)
 D-10-10-10-10-|-7-7-7-7-|
 A-8--8--8--8--|-5-5-5-5-|
 E-------------|---------|
 e-5-5---5-5-5---5-5-5---5-5-5-5-|
 B-5-5---5-5-5---8-8-8---5-5-5-5-|
 G-5-5---5-5-5---5-5-5---5-5-5-5-|
 D-7-7---7-7-7---7-7-7---7-7-7-7-|
 A-------------------------------|
 E-------------------------------|

 e-3-3---3-3-3---3-3-3---3-3-3-3-|
 B-3-3---3-3-3---6-6-6---3-3-3-3-|
 G-3-3---3-3-3---3-3-3---3-3-3-3-|
 D-5-5---5-5-5---5-5-5---5-5-5-5-|
 A-------------------------------|
 E-------------------------------|

Bridge 3
                                    x3
 D-7~7~7~7|~7~7~7~7|~7~7~7~7|~7~7~7~8|

 D-7~7~7~7|~7~7~7~7|~7~7~7~7|~7~7~7~7|

Chorus
                         x4
 e-----------------5---5-5-|
 B-----------------5---5-5-|
 G-----------------5---5-5-|
 D-----------------7---7-7-|
 A----8-8-5-5--------------|
 E-6----------0-5----------|

Outro (3 Guitars at once. One plays the chorus. The other two: )

 Gtr2.
 D-7-7-7-7-7-7-7-7-9-9-9-9-10-10-10-10-|
 A-5-5-5-5-5-5-5-5-7-7-7-7-8--8--8--8--|

 D-7-7-7-7-7-7-7-7-5-5-5-5-5-5-5-5-|
 A-5-5-5-5-5-5-5-5-3-3-3-3-3-3-3-3-|

 D-7-7-7-7-7-7-7-7-9-9-9-9-10-10-10-10-|
 A-5-5-5-5-5-5-5-5-7-7-7-7-8--8--8--8--|

 D-7-7-7-7-7-7-7-7-5-|
 A-5-5-5-5-5-5-5-5-3-|

 Gtr3.
 G-14-14-14-12-12-12-14-14-16-16-16-16-17-17-17-17-|
 
 G-14-14-14-12-12-12-14-14-12-12-12-12-10-10-9-9---|
 
 G-14-14-14-12-12-12-14-14-16-16-16-16-17-17-17-17-|

 G-14-14-14-12-12-12-14-14-12-|
 
Band: Interpol
Song: C'Mere
Album: Antics
Tuning: Standard => EADGBe
Notes: 
| /  slide up
| \  slide down
| h  hammer-on
| p  pull-off
| ~  vibrato
| +  harmonic
| x  Mute note
Tabbed by: Bert (kline.159@osu.edu)

e|---------------------------------------------------------------------------|
B|---------------------------------------------------------------------------|
G|----------------------1--1-------------------------------------------------|
D|----3--3--3--3--3--3-------------------------------------------------------|
A|-----3--3--3--3--3--3--3--3------------------------------------------------|
E|---------------------------------------------------------------------------|

"combat salacious"
e|---------------------------------------------------------------------------|
B|---------------------------------------------------------------------------|
G|----2--2--2--2--2--2--1--1--1--1--1--1-------------------------------------|
D|----3--3--3--3--3--3--3--3--3--3--3--3-------------------------------------|
A|-----3--3--3--3--3--3--3--3--3--3--3--3------------------------------------|
E|---------------------------------------------------------------------------|

each notes is repeated 16 times unless noted
				   *8   *8		    *8   *8
e|---------------------------------------------------------------------------|
B|-10---9---10---9---10---9---13---11---15---10---10---13---11---15----------|
G|---------------------------------------------------------------------------|
D|---------------------------------------------------------------------------|
A|---------------------------------------------------------------------------|
E|---------------------------------------------------------------------------|
		       repeat for rest of song
e|---------------------------------------------------------------------------|
B|-10---10\9/10\9/10---10---9------------------------------------------------|
G|---------------------------------------------------------------------------|
D|---------------------------------------------------------------------------|
A|---------------------------------------------------------------------------|
E|---------------------------------------------------------------------------|

 
Band: Interpol
Song: A Time to Be so Small
Album: Antics
Tuning: Standard => EADGBe
Notes: /
Tabbed by: jonlynch02@yahoo.com

Guitar 1
Intro (Throughout Song Until Outro)
e-5-5-5-5-5-5-5-5-5-5-5-5-5-5-5-5-5-|
B-6-6-6-6-6-6-6-6-6-5-5-5-5-6-6-5-6-|
G-7-7-7-7-7-7-7-7-5-5-5-5-5-7-7-5-7-|
D-----------------------------------|
A-----------------------------------|
E-----------------------------------|

Guitar 2
Intro/Verse
e-----------------------------------------------------------------------|
B-----------------------------------------------------------------------|
G-2--------5-3-2--------5-3-2--------5-(5)/7\2--3-2--5-(5)/7\2--3-2--3--|
D----3--2---------3--2---------3--2-------------------------------------|
A-----------------------------------------------------------------------|
E-----------------------------------------------------------------------|

Guitar 2
Intro Part 2
e----5----5----5------6---|
B-------------------------|
G-2----2-2--2-2--2-3----3-|
D-------------------------|
A-------------------------|
E-------------------------|

Chorus
Guitar 2
e--8--8--8--8--8--8--8--8-6-6-6-6-6-6-6-6--8--8--8--8-5-5-5-5-6-6-6-6-3-3-3-3-|
B-10-10-10-10-10-10-10-10-8-8-8-8-8-8-8-8-10-10-10-10-6-6-6-6-8-8-8-8-5-5-5-5-|
G-----------------------------------------------------------------------------|
D-----------------------------------------------------------------------------|
A-----------------------------------------------------------------------------|
E-----------------------------------------------------------------------------|

e-5-5-5-5-6-6-6-6-3-3-3-3-5-6-6-6-5-5-5-5-6-6-6-6-5-5-5-5-5-5-5-5-|
B-6-6-6-6-6-6-6-6-6-6-6-6-6-6-6-6-6-6-6-6-6-6-6-6-6-6-6-6-6-6-6-6-|
G-----------------------------------------------------------------|
D-----------------------------------------------------------------|
A-----------------------------------------------------------------|
E-----------------------------------------------------------------|

Bridge
Guitar 2
e-------------------------------------|
B-------------------------------------|
G-2--3--2----3--2----3--2----5-(5)/7\-|
D---------3-------2-------------------|
A-------------------------3-----------|
E-------------------------------------|

Interlude
Guitar 2
e-----------------------------------|
B-----------------------------------|
G---------10----------------7---5---|
D-7-8-7-8----8-8-7--7-8-7-8---8---8-|
A-----------------------------------|
E-----------------------------------|

Outro
Guitar 1
e--------------------------1~~~----------------5-5-5-5~~~-|
B--------------------------3~~~----------------6-6-5-6~~~-|
G-------------2~~~---------2~~~----------------7-7-5-7~~~-|
D---------------------------------------------------------|
A---------------------------------------------------------|
E---------------------------------------------------------|
						          |
Guitar 2					          |
e-----------------5---5--------5---5----------------------|
B-----6---6---6-6---6---6--5-5---5---5-----5--------(6)---|
G-7-7---7---7--------------------------5-5---5------------|
D---------------------------------------------------------|
A---------------------------------------------------------|
E---------------------------------------------------------|

Guitar 1
e---------------------------------------------------------5-5-5-5-5~~~-|
B---------------------------------------------------------6-6-6-5-6~~~-|
G---------------------------------------------------------7-5-5-5-7~~~-|
D----------------------------------------------------------------------|
A----------------------------------------------------------------------|
E----------------------------------------------------------------------|
							               |
Guitar 2							       |
e---------------------------5-5-------------5-5------------------------|
B-----------6-6---6-6-6-6-6-----6-5-5-5-5-5-----5----------------------|
G-7-7-7-7-7-----7---------------------------------5-5-5-5--------(6)---|
D----------------------------------------------------------------------|
A----------------------------------------------------------------------|
E----------------------------------------------------------------------|

Last Time
Guitar 1	      
e-----------------5~~~-|
B-----------------6~~~-|
G-----------------7~~~-|
D----------------------|
A----------------------|
E----------------------|
		       |
Guitar 2               |
e----------------------|
B-6-6-6-6-6-6-6-6------|
G-7-7-7-7-7-7-7-5-7~~~-|
D-----------------7~~~-|
A----------------------|
E----------------------|


NOTE: This Time I (gloaming, vincent herremans) complicated the album with other
persons tabs again (see INTERPOL - TURN ON THE BRIGHT LIGHTS), but I've written
down who tabbed the song, have fun!
Related for Antics tab