Song name
# A B C D E F G H I J K L M N O P Q R S T U V W X Y Z

Interpol - Heinrich Maneuver Live tab

Help us improve GuitareTab! Take a short survey!
Song: Heinrich Maneuver (Live Edition)
Tabbed by: Keneticshark24/Silentcrisis

Notes: This tab was produced entirely from the live clip, so the tab will
not be exact. The audio quality is poor, and this is what I could make
out to the best of my ability. I will be adding to this as I figure out
more parts to the song, and as such, feedback will most definetely be 
appreciated. 

Thanks, and enjoy. A relatively simple song which features similar notes
to Slow Hands.

Introduction - Daniel Kessler


E  :----------------|----------------|----------------|----------------|
B  :----------------|----------------|----------------|----------------|
G  :----------------|----------------|----------------|----------------|
D  :----------------|----------------|----------------|----------------|
A  :----------------|--2-2-2---------|----------------|--2-2-2---------|
E  :-----------3-3--|---------3-3-3--|-5-5-5---3-3-3--|---------3-3-3--|


E  :----------------|----------------|----------------|----------------|
B  :----------------|----------------|----------------|----------------|
G  :----------------|----------------|----------------|----------------|
D  :----------------|----------------|----------------|----------------|
A  :----------------|--2-2-2---------|--2-2-2-2-2-----|----------5-5-5-|
E  :--5-5-5--0-0-0--|---------0-0-0--|----------------|3-3-3-3-3-------|


E  :----------------|----------------|----------------|----------------|
B  :----------------|----------------|----------------|----------------|
G  :----------------|----------------|----------------|----------------|
D  :----------------|----------------|----------------|----------------|
A  :----------7-7-7/10-2-2-2---------|----------------|--2-2-2---------|
E  :--5-5-5-5-------|----------3-3-3-|--5-5-5--3-3-3--|---------3-3-3--|


E  :----------------|----------------|----------------|----------------|
B  :----------------|----------------|----------------|----------------|
G  :----------------|----------------|----------------|----------------|
D  :----------------|----------------|----------------|----------------|
A  :----------------|--2-2-2---------|-2-5-2-5--------|----------------|
E  :-5-5-5--0-0-0---|---------0-0-0--|----------------|----------------|
Related for Heinrich Maneuver Live tab