Song name
# A B C D E F G H I J K L M N O P Q R S T U V W X Y Z

Interpol - Scale tab

-------------------------------------------------------------------------------
			      Scale - Interpol
-------------------------------------------------------------------------------
Tabbed by: niftypapaya
Email: led.zeppelin.15@hotmail.com

Tuning: Standard (E-A-D-G-B-e)

e|----------------------------------------------------------------|(repeat)
B|----------------------------------------------------------------|
G|----------------------------------------------------------------|
D|----------------------------------------------------------------|
A|----------------------------------------------------------------|
E|-5-5-7-7-8-8-10-12---12h13p12-12-10-10-10-10-10-10-10-8-8-7-----|

very faint but you can hear some sort of chord like this every now and then
e|-5-------|
B|-6-------|
G|-7-------|

well the first part is playing u can hear this:
e|---------------8p5h8----------|
B|--8p5h8-------------7---------|
G|-7------7----7----------------|
D|------------------------------|
A|------------------------------|
E|------------------------------|

after "son you sleep in clouds of fire...."(thats keyboard not guitar so i cant tab it sorry)
e|----------------------------------------------------------------|(repeat)
B|----------------------------------------------------------------|
G|----------------------------------------------------------------|
D|----------------------------------------------------------------|
A|----------------------------------------------------------------|
E|-5-5-7-7-8-8-10-12---12h13p12-12-10-10-10-10-10-10-10-8-8-7-----|

again randomly
e|-5-------|
B|-6-------|
G|-7-------|

again:
e|---------------8p5h8----------|
B|--8p5h8-------------7---------|
G|-7------7----7----------------|
D|------------------------------|
A|------------------------------|
E|------------------------------|

"son you sleep on clouds of fire" part (repeat this until end of the song)
e|----------------------------------------------------------------|  
B|----------------------------------------------------------------|
G|----------------------------------------------------------------|
D|----------------------------------------------------------------|
A|----------------------------------------------------------------|
E|-5-5-7-7-8-8-10-12---12h13p12-12-10-10-10-10-10-10-10-8-8-7-----|

Solo: (i don't know what effect that is soo whatever here is the solo);)
tip: play it with some sort of distortion or it wont sound as epic :D
e|--------------------------------------------------------------------------|
B|--------------------------------------------------------------------------|
G|--------------------------------------------------------------------------|
D|-10--9-7-7-9-10-10h12p10-9-7-5-7-9-14b-12-10-12\19-14-12-10-12-14-12-10-12|
A|--------------------------------------------------------------------------|
E|--------------------------------------------------------------------------|

e|-------------------------------|
B|-------------------------------|
G|-------------------------------|
D|-14-12-10-12\19-19b-21b-22b-7--|
A|-------------------------------|
E|-------------------------------|


| /  slide up
| \  slide down
| h  hammer-on
| p  pull-off
| ~  vibrato
| +  harmonic
| x  Mute note
=============================================================================
Tap to rate this tab
# A B C D E F G H I J K L M N O P Q R S T U V W X Y Z