Guitaretab - guitar tabs
Song name
# A B C D E F G H I J K L M N O P Q R S T U V W X Y Z

Interpol - Who Do You Think tab

This is my first tab, it sounds ok to me, but I'm sure there's probably a few mistakes.


-------------------------|
-7-7h8--------7h8--------|
-9-9---9--9-9-9---9--9-9-|
-9-7---9--9-9-7---9--9-9-|
-------10-9-------10-9-7-|
-------------------------|

------------------------777777-|
-8----------------------888888-|
-7-(repeat until drums)-777777-|
-------------------------------|
-------------------------------|
-------------------------------|

------------------------777777-|
---------------8-888888-888888-|
-9-999-99-999-97-777777-777777-|
-9-999-99-999-9----------------|
-------------------------------|
-------------------------------| x2

--------------------------------7\-|
---------------------------888888\-|
-9999999999999999-77777777-777777\-|
-9999999999999999-77777777---------|
-----------------------------------|
-----------------------------------|

--------------------------------------------777777-|
---------------------------888888888-888888-888888-|
-9999999999999999-77777777-777777777-777777-777777-|
-9999999999999999-77777777-------------------------|
---------------------------------------------------|
---------------------------------------------------|

------------------------777777-|
---------------8-888888-888888-|
-9-999-99-999-97-777777-777777-|
-9-999-99-999-9----------------|
-------------------------------|
-------------------------------| x3

--------------------------------7\-|
---------------------------888888\-|
-9999999999999999-77777777-777777\-|
-9999999999999999-77777777---------|
-----------------------------------|
-----------------------------------|
[ Tab from: http://www.guitaretab.com/i/interpol/94499.html ]
--------------------------------------------777777-|
---------------------------888888888-888888-888888-|
-9999999999999999-77777777-777777777-777777-777777-|
-9999999999999999-77777777-------------------------|
---------------------------------------------------|
---------------------------------------------------|

------------------------777777-|
---------------8-888888-888888-|
-9-999-99-999-97-777777-777777-|
-9-999-99-999-9----------------|
-------------------------------|
-------------------------------| x3

----------------|
------------5s8-|
-9999--9999-----|
-9999--9999-----|
----------------|
----------------|

------------------------------------|
------------------------------------|
------------------------------------|
-5555555544444555s77777999s22222444-
------------------------------------|
------------------------------------|

-----------------------------|
-----------------------------|
-----------------------------|
-555555-444445-777779-222224-|
-----------------------------|
-----------------------------| x2

---------------------------------------------777777-|
------------------------------------8-888888-888888-|
------------------------------------7-777777-777777-|
-5555555544444555s77777999s22222444-----------------|
----------------------------------------------------|
----------------------------------------------------|

------------------------777777-|
---------------8-888888-888888-|
-9-999-99-999-97-777777-777777-|
-9-999-99-999-9----------------|
-------------------------------|
-------------------------------| x3

----------------7777-----------------7777-|
-----------8888-8888------------8888-8888-|
-9999-9999-7777-7777-9999-89999-7777-7777-|
-9999-9999-----------9999-89999-----------|
------------------------------------------|
------------------------------------------|
Related for Who Do You Think tab
Advertisement will be closed in 10 seconds