Guitaretab - guitar tabs
Song name
# A B C D E F G H I J K L M N O P Q R S T U V W X Y Z

Interpol - Mammoth tab

Interpol  Mammoth
Our Love to Admire
Guitar 1 (Daniel)
Tabbed By: Harris Yahya

Intro/Verse  Guitar 1 (Daniel)
e-----------------------------------------|
B-----------------------------------------|
G--7-7-7-7-7-7-7-7-7-7-7-7-7-7-7-7--------|
D-----------------------------------------|
A---5-5-5-5-5-5-5-5-5-5-5-5-5-5-5-5-------|
E-----------------------------------------| x4

e-----------------------------------------|
B-----------------------------------------|
G--7--7--7--7--7-7-7-7-6-6-7-7-7-7-7-7----|
D-----------------------------------------|
A---10-10-10-10-8-8-8-8-7-7-7-7-5-5-5-5---|
E-----------------------------------------| x2

e-----------------------------------------|
B-----------------------------------------|
G--7-7-7-7-7-7-7-7-7-7-7-7-7-7-7-7--------|
D-----------------------------------------|
A---5-5-5-5-5-5-5-5-5-5-5-5-5-5-5-5-------|
E-----------------------------------------| x3

e-----------------------------------------|
B-----------------------------------------|
G--7--7--7--7--7-7-7-7-6-6-7-7-7-7-7-7----|
D-----------------------------------------|
A---10-10-10-10-8-8-8-8-7-7-7-7-5-5-5-5---|
E-----------------------------------------| x2

Pre-chorus  Guitar 1 (Daniel):
e-----------------------------------------|
B-----------------------------------------|
G--7--7--7--7--7--7--9--9-6-6-7-7---------|
D-----------------------------------------|
A---10-10-10-8-8--8--8--8-4-4-5-5--------|
E-----------------------------------------|

Chorus  Guitar 1 (Daniel):
e-----------------------------------------|
B--7-7-7-7-7-7-7-7-7-7-7-7-7-7-7-7--------|
G---7-7-7-7-7-7-7-7-7-7-7-7-6-6-6-6-------|
D-----------------------------------------|
A-----------------------------------------|
E-----------------------------------------|

e--5-5-5-5-5-5-5-5-7-7-7-7-7-7-7-7--------|
B-----------------------------------------|
G---7-7-7-7-7-7-7-7-7-7-7-7-6-6-6-6-------|
D-----------------------------------------|
A-----------------------------------------|
E-----------------------------------------|

e-----------------------------------------|
B--7-7-7-7-7-7-7-7-7-7-7-7-7-7-7-7--------|
G---7-7-7-7-7-7-7-7-7-7-7-7-6-6-6-6-------|
D-----------------------------------------|
A-----------------------------------------|
E-----------------------------------------|

e--5-5-5-5-5-5-5-5-7-7-7-7-7-7-7-7--------|
B-----------------------------------------|
G---7-7-7-7-7-7-7-7-7-7-7-7-6-6-6-6-------|
D-----------------------------------------|
A-----------------------------------------|
E-----------------------------------------|

Verse  Guitar 1 (Daniel)
e---------------------------------------------------------------|
B---------------------------------------------------------------|
G------7----7---------9----9--------6---6--------7---------9s7--|
D---------------------------------------------------------------|
A--5-5---5----5-12-12---12---12-8-8---8---8-10-1010-10-10------|
E---------------------------------------------------------------| x2

e-----------------------------------------|
B-----------------------------------------|
G--7--7--7--7--7-7-7-7-6-6-7-7-7-7-7-7----|
D-----------------------------------------|
A---10-10-10-10-8-8-8-8-7-7-7-7-5-5-5-5---|
E-----------------------------------------| x2

e-----------------------------------------|
B-----------------------------------------|
G--7--7--7--7--7--7--9--9-6-6-7-7---------|
D-----------------------------------------|
A---10-10-10-8-8--8--8--8-4-4-5-5--------|
E-----------------------------------------|

e-----------------------------------------|
B-----------------------------------------|
G77777777777777777777777766666666--------|
D-----------------------------------------|
A-----------------------------------------|
E-----------------------------------------|

Chorus  Guitar 1 (Daniel):
e-----------------------------------------|
B--7-7-7-7-7-7-7-7-7-7-7-7-7-7-7-7--------|
G---7-7-7-7-7-7-7-7-7-7-7-7-6-6-6-6-------|
D-----------------------------------------|
A-----------------------------------------|
E-----------------------------------------|

e--5-5-5-5-5-5-5-5-7-7-7-7-7-7-7-7--------|
B-----------------------------------------|
G---7-7-7-7-7-7-7-7-7-7-7-7-6-6-6-6-------|
D-----------------------------------------|
A-----------------------------------------|
E-----------------------------------------|


e-----------------------------------------|
B--7-7-7-7-7-7-7-7-7-7-7-7-7-7-7-7--------|
G---7-7-7-7-7-7-7-7-7-7-7-7-6-6-6-6-------|
D-----------------------------------------|
A-----------------------------------------|
E-----------------------------------------|

e--5-5-5-5-5-5-5-5-7-7-7-7-7-7-7-7--------|
B-----------------------------------------|
G---7-7-7-7-7-7-7-7-7-7-7-7-6-6-6-6-------|
D-----------------------------------------|
A-----------------------------------------|
E-----------------------------------------|
[ Tab from: http://www.guitaretab.com/i/interpol/94580.html ]
Verse  Guitar 1 (Daniel)
e---------------------------------------------------------------|
B---------------------------------------------------------------|
G------7----7---------9----9--------6---6--------7---------9s7--|
D---------------------------------------------------------------|
A--5-5---5----5-12-12---12---12-8-8---8---8-10-1010-10-10------|
E---------------------------------------------------------------| x2

e-----------------------------------------|
B-----------------------------------------|
G--7-7-7-7-7-7-7-7-7-7-7-7-7-7-7-7--------|
D-----------------------------------------|
A---5-5-5-5-5-5-5-5-5-5-5-5-5-5-5-5-------|
E-----------------------------------------| x7

Interpol  Mammoth
Our Love to Admire
Guitar 2 (Paul)
Tabbed By: Harris Yahya

Verse  Guitar 2 (Paul) (0:28)
e-----------------------------------------|
B-----------------------------------------|
G--7--7--7--7--7-7-7-7-6-6-7-7-7-7-7-7----|
D-----------------------------------------|
A---10-10-10-10-8-8-8-8-7-7-7-7-5-5-5-5---|
E-----------------------------------------| x2

(Strum this part)
e-----------------------------------------|
B-----------------------------------------|
G--7-7-7-7-7-7-7-7-7-7-7-7-7-7-7-7--------|
D-----------------------------------------|
A--5-5-5-5-5-5-5-5-5-5-5-5-5-5-5-5--------|
E-----------------------------------------| x2

e-----------------------------------------|
B-----------------------------------------|
G7s97---10s12s10~~~~~-9~~~~~-6-----------|
D-----------------------------------------|
A-----------------------------------------|
E-----------------------------------------|

e-----------------------------------------|
B-----------------------------------------|
G--7--7--7--7--7-7-7-7-6-6-7-7-7-7-7-7----|
D-----------------------------------------|
A---10-10-10-10-8-8-8-8-7-7-7-7-5-5-5-5---|
E-----------------------------------------| x2

e-----------------------------------------|
B-----------------------------------------|
G--7--7--7--7--7--7--9--9-6-6-7-7---------|
D-----------------------------------------|
A---10-10-10-8-8--8--8--8-4-4-5-5--------|
E-----------------------------------------|

Guitar 2 (Paul) (1:31)
e---x-x------------------------------------|
B---x-x------------------------------------|
G--x-x------------------------------------|
D-----12let-ring---------------------------|
A----12let-ring---------------------------|
E-----x------------------------------------|

Verse 2  Guitar 2 Lead (Paul) (1:45)
e------x-x-x-x---x--x-x-x-x-x---x-x-x-x--x--x-x-x---x--x-|
B------7-7-7-7---7--7-7-7-8-7---7-7-7-7--7--7-7-7---7--x-|
G-----x-x-x-x---x--x-x-x-x-x---x-x-x-x--x--x-x-x---x--9-|
D------x-x-x-x---x--x-x-x-x-x---x-x-x-x--x--x-x-x---x--x-|
A--------------------------------------------------------|
E--------------------------------------------------------|

(2:06)
e-----------------------------------------|
B-----------------------------------------|
G--7--7--7--7--7-7-7-7-6-6-7-7-7-7-7-7----|
D-----------------------------------------|
A---10-10-10-10-8-8-8-8-7-7-7-7-5-5-5-5---|
E-----------------------------------------| x2

e-----------------------------------------|
B-----------------------------------------|
G--7--7--7--7--7--7--9--9-6-6-7-7---------|
D-----------------------------------------|
A---10-10-10-8-8--8--8--8-4-4-5-5--------|
E-----------------------------------------|

Guitar 2 (Paul) (2:48)
e---x-x------------------------------------|
B---x-x------------------------------------|
G--x-x------------------------------------|
D-----12let-ring---------------------------|
A----12let-ring---------------------------|
E-----x------------------------------------|

Verse 3/Outro  Guitar 2 Lead (Paul) (3:02)
e--x-x-x-x---x--x-x-x-x-x---x-x-x-x--x--x-x-x---x--x-|
B--7-7-7-7---7--7-7-7-8-7---7-7-7-7--7--7-7-7---x--7-|
G-x-x-x-x---x--x-x-x-x-x---x-x-x-x--x--x-x-x---9--x-|
D--x-x-x-x---x--x-x-x-x-x---x-x-x-x--x--x-x-x---x--x-|
A----------------------------------------------------|
E----------------------------------------------------|

e--x-x-x-x---x--x-x-x-x-x---x-x-x-x--x-x-x---x-x-x-x-|
B--7-7-7-7---7--7-7-7-8-7---6-6-6-6--7-7-7---7-x-8-7-|
G-x-x-x-x---x--x-x-x-x-x---x-x-x-x--x-x-x---x-9-x-x-|
D--x-x-x-x---x--x-x-x-x-x---x-x-x-x--x-x-x---x-x-x-x-|
A----------------------------------------------------|
E----------------------------------------------------|

Outro  Guitar 2 (Paul)
e-xxx-xxxx--xxxx-xxxxxx-xxx-xxxx-xxxx-xxxxxx--|
B-66x-666x--666x-66666x-55x-555x-555x-55555x--|
G77x-777x--777x-77777x-77x-777x-777x-77777x--|
D-xxx-xxxx--xxxx-xxxxxx-xxx-xxxx-xxxx-xxxxxx--|
A---------------------------------------------|
E---------------------------------------------| x2

e-xxx-xxxx--xxxx-xxxxxx-xxx-xxxx-xxxx-xxxxxx--|
B-66x-666x--666x-88888x-55x-555x-888x-55555x--|
G77x-777x--777x-77777x-77x-777x-777x-77777x--|
D-xxx-xxxx--xxxx-xxxxxx-xxx-xxxx-xxxx-xxxxxx--|
A---------------------------------------------|
E---------------------------------------------| x3

Outro  Guitar 2 Lead (Paul)
e-------------------------------------------|
B-------------------------------------------|
G7s97---10s12s10~~~~~-9~~~~~-6~~~-7s9s7~~~-|
D-------------------------------------------|
A-------------------------------------------|
E-------------------------------------------|
Related for Mammoth tab