Song name
# A B C D E F G H I J K L M N O P Q R S T U V W X Y Z

Interpol - All Fired Up tab

Help us improve GuitareTab! Take a short survey!
This is my first tab. sorry its a bit messy

guitar 1(0:00 0:31)
e--------------------------------------------------------------------|
B--------------------------------------------------------------------|
G--------------------------------------------------------------------|
D----2p0-------------------------------------------------------------|
A--0-----3--3-3------------------------------------------------------|
E--------------------------------------------------------------------|

(Play the bit above during this part)
guitar 2(0:36-0:51)
e--------------------------------------------------------------------|
B-------5---5 ------5---5---------6-5-6-------6-5-6------------------|
G-----5---7-------5---7---------7-----------7------------------------|
D---7-----------7-------------7-----------7--------------------------|
A--------------------------------------------------------------------|
E--------------------------------------------------------------------|

guitar 2(0:52-0:56)
e--------------------------------------------------------------------|
B--------------------------------------------------------------------|
G--9--9-9--9-9--9-9--------------------------------------------------|
D--------------------------------------------------------------------|
A--------------------------------------------------------------------|
E--------------------------------------------------------------------|

guitar 2(0:56-1:00)
e--------1-0-1--------1-0-1-------------------------------------------|
B----1-3----------1-3-------------------------------------------------|
G--2------------2-----------------------------------------------------|
D---------------------------------------------------------------------|
A---------------------------------------------------------------------|
E---------------------------------------------------------------------|

guitar 1(0:56-1:00)
e--------------------------------------------------------------------|
B--------------------------------------------------------------------|
G--------------------------------------------------------------------|
D----2p0-------------------------------------------------------------|
A--0-----3--3-3------------------------------------------------------|
E--------------------------------------------------------------------|


guitar 1(1:00-1:20)
e---------------------|-----------------------------------------------|
B---------------------|-----------------------------------------------|
G---------------------|-----------------------------------------------|
D---------------------|-----------------------------------------------|
A--3-3--3-3--3-3--3-3-|--3-2--2-3s7-7s8-8s5-5s3-3-2-------------------|(X 2)
E---------------------|-----------------------------------------------|

guitar 1(1:20-1:36)
e--------------------------------------------------------------------|
B--------------------------------------------------------------------|
G--------------------------------------------------------------------|
D--------------------------------------------------------------------|
A----3-2--2-3s7-7s8-8s10-12s5-3-2----3-2--2-3s7-7s8-8s5-5s3-3-2------|
E--------------------------------------------------------------------|

guitar 1(1:36-1:55)
e--------------------------------------------------------------------|
B--------------------------------------------------------------------|
G--------------------------------------------------------------------|
D----2p0-------------------------------------------------------------|
A--0-----3--3-3------------------------------------------------------|
E--------------------------------------------------------------------|

(Play the bit above during this part)
guitar 2(2:01-2:17)
e--------------------------------------------------------------------|
B-------5---5 ------5---5---------6-5-6-------6-5-6------------------|
G-----5---7-------5---7---------7-----------7------------------------|
D---7-----------7-------------7-----------7--------------------------|
A--------------------------------------------------------------------|
E--------------------------------------------------------------------|

guitar 2(2:17-2:20)
e--------------------------------------------------------------------|
B--------------------------------------------------------------------|
G--9--9-9--9-9--9-9--------------------------------------------------|
D--------------------------------------------------------------------|
A--------------------------------------------------------------------|
E--------------------------------------------------------------------|

guitar 2(2:21-2:25)
e--------1-0-1--------1-0-1-------------------------------------------|
B----1-3----------1-3-------------------------------------------------|
G--2------------2-----------------------------------------------------|
D---------------------------------------------------------------------|
A---------------------------------------------------------------------|
E---------------------------------------------------------------------|

guitar 1(2:25-2:44)
e---------------------|-----------------------------------------------|
B---------------------|-----------------------------------------------|
G---------------------|-----------------------------------------------|
D---------------------|-----------------------------------------------|
A--3-3--3-3--3-3--3-3-|--3-2--2-3s7-7s8-8s5-5s3-3-2-------------------|(X 2)
E---------------------|-----------------------------------------------|

guitar 1(2:44-2:51)
e--------------------------------------------------------------------|
B--------------------------------------------------------------------|
G--------------------------------------------------------------------|
D--------------------------------------------------------------------|
A----3-2--2-3s7-7s8-8s10-12s5-3-2------------------------------------|
E--------------------------------------------------------------------|

Thats all ive got so far
Related for All Fired Up tab