Song name
# A B C D E F G H I J K L M N O P Q R S T U V W X Y Z

Interpol - No I In Threesome tab

Artist: Interpol 
Song:   No I In Threesome
Album:  Our Love To Admire (2007)

Pretty Sure It's 100% correct

VERSE 1:

(Dan's Guitar)

e-x--x--x--x--x--x--x--x--x--x--x--x--x--x--x--x-| x4
B-1--1--1--1--1--1--1--1--1--1--1--1--1--1--1--1-|
G-2--2--2--2--2--2--2--2--2--2--2--2--2--0--0--0-|
D-3--3--3--3--3--3--3--3--3--3--3--3--3--3--3--3-|
A(3)(3)(3)(3)(3)(3)(3)(3)(3)(3)(3)(3)(3)(3)(3)(3)|
E-x--x--x--x--x--x--x--x--x--x--x--x--x--x--x--x-|

Through the storms and the light 
Baby, you've stood by my side 

e-x--x--x--x--x--x--x--x--x--x--x--x--x--x--x--x-| 
B-1--1--1--1--1--1--1--1--1--1--1--1--1--1--1--1-|
G-0--0--0--0--0--0--0--0--2--2--2--2--2--0--0--0-|
D-2--2--2--2--2--2--2--2--2--2--2--2--2--2--2--2-|
A(3)(3)(3)(3)(3)(3)(3)(3)(3)(3)(3)(3)(3)(3)(3)(3)|
E-x--x--x--x--x--x--x--x--x--x--x--x--x--x--x--x-|

And life is wine

e-x--x--x--x--x--x--x--x--x--x--x--x--x--x--x--x-| x2
B-1--1--1--1--1--1--1--1--1--1--1--1--1--1--1--1-|
G-2--2--2--2--2--2--2--2--2--2--2--2--2--0--0--0-|
D-3--3--3--3--3--3--3--3--3--3--3--3--3--3--3--3-|
A(3)(3)(3)(3)(3)(3)(3)(3)(3)(3)(3)(3)(3)(3)(3)(3)|
E-x--x--x--x--x--x--x--x--x--x--x--x--x--x--x--x-|

But there are days in this life 
When you see the teeth marks of time 

e-x--x--x--x--x--x--x--x--x--x--x--x--x--x--x--x-| 
B-1--1--1--1--1--1--1--1--1--1--1--1--1--1--1--1-|
G-0--0--0--0--0--0--0--0--2--2--2--2--2--0--0--0-|
D-2--2--2--2--2--2--2--2--2--2--2--2--2--2--2--2-|
A(3)(3)(3)(3)(3)(3)(3)(3)(3)(3)(3)(3)(3)(3)(3)(3)|
E-x--x--x--x--x--x--x--x--x--x--x--x--x--x--x--x-|

Two lovers divide

INTRO CHORUS:

(Paul's Guitar)

e----| 
B-0>-|
G-0>-|
D-2>-|
A-3>-|
E----|

(Dan's Guitar)

e-x--x--x--x--x--x--x--x--x--x--x--x--x--x--x--x-| 
B-0--0--0--0--0--0--0--0--0--0--0--0--0--0--0--0-|
G-0--0--0--0--0--0--0--0--0--0--0--0--0--0--0--0-|
D-2--2--2--2--2--2--2--2--2--2--2--2--2--2--2--2-|
A-3--3--3--3--3--3--3--3--3--3--3--3--3--3--3--3-|
E-0--x--x--x--x--x--x--x--x--x--x--x--x--x--x--x-|

Sound meets sound, babe 

e-x--x--x--x--x--x--x--x--x--x--x--x--x--x--x--x-| 
B-0--0--0--0--0--0--0--0--0--0--0--0--0--0--0--0-|
G-0--0--0--0--0--0--0--0--0--0--0--0--0--0--0--0-|
D-2--2--2--2--2--2--2--2--2--2--2--2--3--3--3--3-|
A-2--2--2--2--2--2--2--2--2--2--2--2--2--2--2--2-|
E-0--0--0--0--0--0--0--0--0--0--0--0--0--0--0--0-|

The echoes they surround 

e(5)(5)(5)(5)(5)(5)(5)(5)(5)(5)(5)(5)(5)(5)(5)(5)| 
B-5--5--7--7--7--5--5--5--5--5--7--7--7--5--5--5-|
G-5--5--5--5--5--5--5--5--5--5--5--5--5--5--5--5-|
D-7--7--7--7--7--7--7--7--7--7--7--7--7--7--7--7-|
A-7--7--7--7--7--7--7--7--7--7--7--7--7--7--7--7-|
E------------------------------------------------|
And all that we need is one thing 

e-x--x--x--x--x--x--x--x--x--x--x--x--x--x--x--x-|
B-1--1--1--1--1--1--1--1--1--1--1--1--1--1--1--1-|
G-2--2--2--2--2--2--2--2--2--2--2--2--2--2--2--2-|
D-3--3--3--3--3--3--3--3--3--3--3--3--3--3--3--3-|
A-3--3--3--3--3--3--3--3--3--3--3--3--3--3--3--3-|
E-x--x--x--x--x--x--x--x--x--x--x--x--x--x--x--x-|

What is there to allow

(Paul's Guitar)

...
G---------------------------------|
D-3-3-3-3-7-7-7-7-2-2-2-2-7-7-7-7-| (Fast)
A---------------------------------|
E---------------------------------|


CHORUS:

(Pauls Guitar)

e------------------------------------------------| x3
B-5--5--5--5--5--5--5--5--5--5--5--6--6--6--6--6-|

(Dan's Guitar)

e-x--x--x--x--x--x--x--x--x--x--x--x--x--x--x--x-| 
B-1--1--1--1--1--1--1--1--1--1--1--1--1--1--1--1-|
G-0--0--0--0--0--0--0--0--0--0--0--0--0--0--0--0-|
D-2--2--2--2--2--2--2--2--2--2--2--2--2--2--2--2-|
A-3--3--3--3--3--3--3--3--3--3--3--3--3--3--3--3-|
E-X--x--x--x--x--x--x--x--x--x--x--x--x--x--x--x-|

Babe it's time we give 

e-x--x--x--x--x--x--x--x--x--x--x--x--x--x--x--x-| 
B-0--0--0--0--0--0--0--0--0--0--0--0--0--0--0--0-|
G-0--0--0--0--0--0--0--0--0--0--0--0--0--0--0--0-|
D-2--2--2--2--2--2--2--2--2--2--2--2--3--3--3--3-|
A-2--2--2--2--2--2--2--2--2--2--2--2--2--2--2--2-|
E-0--0--0--0--0--0--0--0--0--0--0--0--0--0--0--0-|

something new a try 

e(5)(5)(5)(5)(5)(5)(5)(5)(5)(5)(5)(5)(5)(5)(5)(5)| 
B-5--5--7--7--7--5--5--5--5--5--7--7--7--5--5--5-|
G-5--5--5--5--5--5--5--5--5--5--5--5--5--5--5--5-|
D-7--7--7--7--7--7--7--7--7--7--7--7--7--7--7--7-|
A-7--7--7--7--7--7--7--7--7--7--7--7--7--7--7--7-|
E------------------------------------------------|

Alone we may fight so just let us 

e-x-----x--x-----x--x-----x--x--x-|
B-1-----1--1-----1--1-----1--1--1-|
G-2-----2--2-----2--2-----2--2--2-|
D-3-----3--3-----3--3-----3--3--3-|
A-3-----3--3-----3--3-----3--3--3-|
E-x-----x--x-----x--x-----x--x--X-|

(Paul's Guitar)

e-5-----5--5-----5--5-----5--5--5-|
B-6-----6--6-----6--6-----6--6--6-|

be free

BREACK:

(Pauls Guitar)

e------------------------------------------------| 
B-8--10---8---------------8--10---8--------------|
G--------------10--9-----------------10---9--7-9>|
D------------------------------------------------|

(Dan's Guitar)

e-x--x--x--x--x--x--x--x--x--x--x--x--x--x--x--x-| x3
B-1--1--1--1--1--1--1--1--1--1--1--1--1--1--1--1-|
G-2--2--2--2--2--2--2--2--2--2--2--2--2--0--0--0-|
D-3--3--3--3--3--3--3--3--3--3--3--3--3--3--3--3-|
A(3)(3)(3)(3)(3)(3)(3)(3)(3)(3)(3)(3)(3)(3)(3)(3)|
E-x--x--x--x--x--x--x--x--x--x--x--x--x--x--x--x-|


e-x--x--x--x--x--x--x--x--x--x--x--x--x--x--x--x-| 
B-1--1--1--1--1--1--1--1--1--1--1--1--1--1--1--1-|
G-0--0--0--0--0--0--0--0--2--2--2--2--2--0--0--0-|
D-2--2--2--2--2--2--2--2--2--2--2--2--2--2--2--2-|
A(3)(3)(3)(3)(3)(3)(3)(3)(3)(3)(3)(3)(3)(3)(3)(3)|
E-x--x--x--x--x--x--x--x--x--x--x--x--x--x--x--x-|


VERSE 2:

e-x--x--x--x--x--x--x--x--x--x--x--x--x--x--x--x-| x2
B-1--1--1--1--1--1--1--1--1--1--1--1--1--1--1--1-|
G-2--2--2--2--2--2--2--2--2--2--0--2--0--2--0--2-|
D-3--3--3--3--3--3--3--3--3--3--3--3--3--3--3--3-|
A(3)(3)(3)(3)(3)(3)(3)(3)(3)(3)(3)(3)(3)(3)(3)(3)|
E-x--x--x--x--x--x--x--x--x--x--x--x--x--x--x--x-|

And Baby tonight, I see your lips are on fire 

e-x--x--x--x--x--x--x--x--x--x--x--x--x--x--x--x-| 
B-1--1--1--1--1--1--1--1--1--1--1--1--1--1--1--1-|
G-0--0--0--0--0--0--0--0--2--2--2--2--2--0--0--0-|
D-2--2--2--2--2--2--2--2--2--2--2--2--2--2--2--2-|
A(3)(3)(3)(3)(3)(3)(3)(3)(3)(3)(3)(3)(3)(3)(3)(3)|
E-x--x--x--x--x--x--x--x--x--x--x--x--x--x--x--x-|

And life is wine 

e-x--x--x--x--x--x--x--x--x--x--x--x--x--x--x--x-| x2
B-1--1--1--1--1--1--1--1--1--1--1--1--1--1--1--1-|
G-2--2--2--2--2--2--2--2--2--2--0--2--0--2--0--2-|
D-3--3--3--3--3--3--3--3--3--3--3--3--3--3--3--3-|
A(3)(3)(3)(3)(3)(3)(3)(3)(3)(3)(3)(3)(3)(3)(3)(3)|
E-x--x--x--x--x--x--x--x--x--x--x--x--x--x--x--x-|

Now the windows are open 
The moon is so bright 
There's no one can tell us what love brings 

e-x--x--x--x--x--x--x--x--x--x--x--x--x--x--x--x-| 
B-1--1--1--1--1--1--1--1--1--1--1--1--1--1--1--1-|
G-0--0--0--0--0--0--0--0--2--2--2--2--2--0--0--0-|
D-2--2--2--2--2--2--2--2--2--2--2--2--2--2--2--2-|
A(3)(3)(3)(3)(3)(3)(3)(3)(3)(3)(3)(3)(3)(3)(3)(3)|
E-x--x--x--x--x--x--x--x--x--x--x--x--x--x--x--x-|

For you and I

INTRO CHORUS:

(Paul's Guitar)

e----| 
B-0>-|
G-0>-|
D-2>-|
A-3>-|
E----|

(Dan's Guitar)

e-x--x--x--x--x--x--x--x--x--x--x--x--x--x--x--x-| 
B-0--0--0--0--0--0--0--0--0--0--0--0--0--0--0--0-|
G-0--0--0--0--0--0--0--0--0--0--0--0--0--0--0--0-|
D-2--2--2--2--2--2--2--2--2--2--2--2--2--2--2--2-|
A-3--3--3--3--3--3--3--3--3--3--3--3--3--3--3--3-|
E-0--x--x--x--x--x--x--x--x--x--x--x--x--x--x--x-|

Sound meets sound, babe 

e-x--x--x--x--x--x--x--x--x--x--x--x--x--x--x--x-| 
B-0--0--0--0--0--0--0--0--0--0--0--0--0--0--0--0-|
G-0--0--0--0--0--0--0--0--0--0--0--0--0--0--0--0-|
D-2--2--2--2--2--2--2--2--2--2--2--2--3--3--3--3-|
A-2--2--2--2--2--2--2--2--2--2--2--2--2--2--2--2-|
E-0--0--0--0--0--0--0--0--0--0--0--0--0--0--0--0-|

The echoes they surround 

e(5)(5)(5)(5)(5)(5)(5)(5)(5)(5)(5)(5)(5)(5)(5)(5)| 
B-5--5--7--7--7--5--5--5--5--5--7--7--7--5--5--5-|
G-5--5--5--5--5--5--5--5--5--5--5--5--5--5--5--5-|
D-7--7--7--7--7--7--7--7--7--7--7--7--7--7--7--7-|
A-7--7--7--7--7--7--7--7--7--7--7--7--7--7--7--7-|
E------------------------------------------------|
And all that we need is one thing 

e-x--x--x--x--x--x--x--x--x--x--x--x--x--x--x--x-|
B-1--1--1--1--1--1--1--1--1--1--1--1--1--1--1--1-|
G-2--2--2--2--2--2--2--2--2--2--2--2--2--2--2--2-|
D-3--3--3--3--3--3--3--3--3--3--3--3--3--3--3--3-|
A-3--3--3--3--3--3--3--3--3--3--3--3--3--3--3--3-|
E-x--x--x--x--x--x--x--x--x--x--x--x--x--x--x--x-|

What is there to allow

(Paul's Guitar)

...
G---------------------------------|
D-3-3-3-3-7-7-7-7-2-2-2-2-7-7-7-7-| (Fast)
A---------------------------------|
E---------------------------------|

CHORUS:

(Pauls Guitar)

e------------------------------------------------| x3
B-5--5--5--5--5--5--5--5--5--5--5--6--6--6--6--6-|

(Dan's Guitar)

e-x--x--x--x--x--x--x--x--x--x--x--x--x--x--x--x-| 
B-1--1--1--1--1--1--1--1--1--1--1--1--1--1--1--1-|
G-0--0--0--0--0--0--0--0--0--0--0--0--0--0--0--0-|
D-2--2--2--2--2--2--2--2--2--2--2--2--2--2--2--2-|
A-3--3--3--3--3--3--3--3--3--3--3--3--3--3--3--3-|
E-X--x--x--x--x--x--x--x--x--x--x--x--x--x--x--x-|

Babe it's time we give 

e-x--x--x--x--x--x--x--x--x--x--x--x--x--x--x--x-| 
B-0--0--0--0--0--0--0--0--0--0--0--0--0--0--0--0-|
G-0--0--0--0--0--0--0--0--0--0--0--0--0--0--0--0-|
D-2--2--2--2--2--2--2--2--2--2--2--2--3--3--3--3-|
A-2--2--2--2--2--2--2--2--2--2--2--2--2--2--2--2-|
E-0--0--0--0--0--0--0--0--0--0--0--0--0--0--0--0-|

something new a try 

e(5)(5)(5)(5)(5)(5)(5)(5)(5)(5)(5)(5)(5)(5)(5)(5)| 
B-5--5--7--7--7--5--5--5--5--5--7--7--7--5--5--5-|
G-5--5--5--5--5--5--5--5--5--5--5--5--5--5--5--5-|
D-7--7--7--7--7--7--7--7--7--7--7--7--7--7--7--7-|
A-7--7--7--7--7--7--7--7--7--7--7--7--7--7--7--7-|
E------------------------------------------------|

Alone we may fight so just let us 

e-x--x--x--x--x--x--x--x--x--x--x--x--x--x--x--x-|
B-1--1--1--1--1--1--1--1--1--1--1--1--1--1--1--1-|
G-2--2--2--2--2--2--2--2--2--2--2--2--2--2--2--2-|
D-3--3--3--3--3--3--3--3--3--3--3--3--3--3--3--3-|
A-3--3--3--3--3--3--3--3--3--3--3--3--3--3--3--3-|
E-x--x--x--x--x--x--x--x--x--x--x--x--x--x--x--x-|

(Paul's Guitar)

e-5--5--5--5--5--5--5--5--5--5--5--5--5--5--5--5-|
B-6--6--6--6--6--6--6--6--6--6--6--6--6--6--6--6-|

be free, tonight

SOLO (NO GUITARS):

Through the storms and the light 
Baby, you've stood by my side 
And life is wine 

Do you feel the sweet breath of time? 
It's whispering it's truth, not mine 
There's no "I" in "threesome"

INTRO FINAL CHORUS:

(Paul's Guitar)

e----| 
B-0>-|
G-0>-|
D-2>-|
A-3>-|
E----|

(Dan's Guitar)

e-x--x--x--x--x--x--x--x--x--x--x--x--x--x--x--x-| 
B-0--0--0--0--0--0--0--0--0--0--0--0--0--0--0--0-|
G-0--0--0--0--0--0--0--0--0--0--0--0--0--0--0--0-|
D-2--2--2--2--2--2--2--2--2--2--2--2--2--2--2--2-|
A-3--3--3--3--3--3--3--3--3--3--3--3--3--3--3--3-|
E-0--x--x--x--x--x--x--x--x--x--x--x--x--x--x--x-|

e-x--x--x--x--x--x--x--x--x--x--x--x--x--x--x--x-| 
B-0--0--0--0--0--0--0--0--0--0--0--0--0--0--0--0-|
G-0--0--0--0--0--0--0--0--0--0--0--0--0--0--0--0-|
D-2--2--2--2--2--2--2--2--2--2--2--2--3--3--3--3-|
A-2--2--2--2--2--2--2--2--2--2--2--2--2--2--2--2-|
E-0--0--0--0--0--0--0--0--0--0--0--0--0--0--0--0-|
 
e(5)(5)(5)(5)(5)(5)(5)(5)(5)(5)(5)(5)(5)(5)(5)(5)| 
B-5--5--7--7--7--5--5--5--5--5--7--7--7--5--5--5-|
G-5--5--5--5--5--5--5--5--5--5--5--5--5--5--5--5-|
D-7--7--7--7--7--7--7--7--7--7--7--7--7--7--7--7-|
A-7--7--7--7--7--7--7--7--7--7--7--7--7--7--7--7-|
E------------------------------------------------|

e-x--x--x--x--x--x--x--x--x--x--x--x--x--x--x--x-|
B-1--1--1--1--1--1--1--1--1--1--1--1--1--1--1--1-|
G-2--2--2--2--2--2--2--2--2--2--2--2--2--2--2--2-|
D-3--3--3--3--3--3--3--3--3--3--3--3--3--3--3--3-|
A-3--3--3--3--3--3--3--3--3--3--3--3--3--3--3--3-|
E-x--x--x--x--x--x--x--x--x--x--x--x--x--x--x--x-|

And I am all for it

(Paul's Guitar)

...
G---------------------------------|
D-3-3-3-3-7-7-7-7-2-2-2-2-7-7-7-7-| (Fast)
A---------------------------------|
E---------------------------------|

FINAL CHORUS:

(Paul's Guitar)

e------------------------------------------------| x3
B-5--5--5--5--5--5--5--5--5--5--5--6--6--6--6--6-|

(Dan's Guitar)

e-x--x--x--x--x--x--x--x--x--x--x--x--x--x--x--x-| 
B-1--1--1--1--1--1--1--1--1--1--1--1--1--1--1--1-|
G-0--0--0--0--0--0--0--0--0--0--0--0--0--0--0--0-|
D-2--2--2--2--2--2--2--2--2--2--2--2--2--2--2--2-|
A-3--3--3--3--3--3--3--3--3--3--3--3--3--3--3--3-|
E-X--x--x--x--x--x--x--x--x--x--x--x--x--x--x--x-|

Babe it's time we give 

e-x--x--x--x--x--x--x--x--x--x--x--x--x--x--x--x-| 
B-0--0--0--0--0--0--0--0--0--0--0--0--0--0--0--0-|
G-0--0--0--0--0--0--0--0--0--0--0--0--0--0--0--0-|
D-2--2--2--2--2--2--2--2--2--2--2--2--3--3--3--3-|
A-2--2--2--2--2--2--2--2--2--2--2--2--2--2--2--2-|
E-0--0--0--0--0--0--0--0--0--0--0--0--0--0--0--0-|

something new a try 

e(5)(5)(5)(5)(5)(5)(5)(5)(5)(5)(5)(5)(5)(5)(5)(5)| 
B-5--5--7--7--7--5--5--5--5--5--7--7--7--5--5--5-|
G-5--5--5--5--5--5--5--5--5--5--5--5--5--5--5--5-|
D-7--7--7--7--7--7--7--7--7--7--7--7--7--7--7--7-|
A-7--7--7--7--7--7--7--7--7--7--7--7--7--7--7--7-|
E------------------------------------------------|

Oh, alone we may fight

e-x--x--x--x--x--x--x--x--x--x--x--x--x--x--x--x-|
B-1--1--1--1--1--1--1--1--1--1--1--1--1--1--1--1-|
G-2--2--2--2--2--2--2--2--2--2--2--2--2--2--2--2-|
D-3--3--3--3--3--3--3--3--3--3--3--3--3--3--3--3-|
A-3--3--3--3--3--3--3--3--3--3--3--3--3--3--3--3-|
E-x--x--x--x--x--x--x--x--x--x--x--x--x--x--x--x-|

(Paul's Guitar)

...
G---------------------------------|
D-3-3-3-3-7-7-7-7-2-2-2-2-7-7-7-7-| (Fast)
A---------------------------------|
E---------------------------------|

And feathers bend like trees, In the moonlight.

(Paul's Guitar)

e------------------------------------------------| x3
B-5--5--5--5--5--5--5--5--5--5--5--6--6--6--6--6-|

(Dan's Guitar)

e-x--x--x--x--x--x--x--x--x--x--x--x--x--x--x--x-| 
B-1--1--1--1--1--1--1--1--1--1--1--1--1--1--1--1-|
G-0--0--0--0--0--0--0--0--0--0--0--0--0--0--0--0-|
D-2--2--2--2--2--2--2--2--2--2--2--2--2--2--2--2-|
A-3--3--3--3--3--3--3--3--3--3--3--3--3--3--3--3-|
E-X--x--x--x--x--x--x--x--x--x--x--x--x--x--x--x-|

Babe it's time we give 

e-x--x--x--x--x--x--x--x--x--x--x--x--x--x--x--x-| 
B-0--0--0--0--0--0--0--0--0--0--0--0--0--0--0--0-|
G-0--0--0--0--0--0--0--0--0--0--0--0--0--0--0--0-|
D-2--2--2--2--2--2--2--2--2--2--2--2--3--3--3--3-|
A-2--2--2--2--2--2--2--2--2--2--2--2--2--2--2--2-|
E-0--0--0--0--0--0--0--0--0--0--0--0--0--0--0--0-|

something new a try 

e(5)(5)(5)(5)(5)(5)(5)(5)(5)(5)(5)(5)(5)(5)(5)(5)| 
B-5--5--7--7--7--5--5--5--5--5--7--7--7--5--5--5-|
G-5--5--5--5--5--5--5--5--5--5--5--5--5--5--5--5-|
D-7--7--7--7--7--7--7--7--7--7--7--7--7--7--7--7-|
A-7--7--7--7--7--7--7--7--7--7--7--7--7--7--7--7-|
E------------------------------------------------|

Alone we may fight so just let us 

e-x--x--x--x--x--x--x--x--x--x--x--x--x--x--x--x-|
B-1--1--1--1--1--1--1--1--1--1--1--1--1--1--1--1-|
G-2--2--2--2--2--2--2--2--2--2--2--2--2--0--0--0-|
D-3--3--3--3--3--3--3--3--3--3--3--3--3--3--3--3-|
A(3)(3)(3)(3)(3)(3)(3)(3)(3)(3)(3)(3)(3)(3)(3)(3)|
E-x--x--x--x--x--x--x--x--x--x--x--x--x--x--x--x-|

(Paul's Guitar)

e-5--5--5--5--5--5--5--5--5--5--5--5--5--5--5--5-|
B-6--6--6--6--6--6--6--6--6--6--6--6--6--6--6--6-|

be three tonight

(Dan's Guitar)

e-0-|
B-1-|
G-2-|
D-3-|
A-3-|
E-x-|

(Paul's Guitar)

e-0-|
B-5-|


hope it's correct.
.-NelsTorr
Tap to rate this tab
# A B C D E F G H I J K L M N O P Q R S T U V W X Y Z