Guitaretab - guitar tabs
Song name
# A B C D E F G H I J K L M N O P Q R S T U V W X Y Z

Intheclear - Drown tab

Song: Drown (Acoustic Guitar)
Band: The Send
Album: Cosmos

Intro/Verse (repeat as many times as needed)
D#|------------------------------------------------------------------------|
A#|------------------------------------------------------------------------|
F#|-------0-------0-------0-------0-----------------------0---------2p0----|
C#|-----9---9---9---9---9-------5---5-----9-------9---------------0--------|
G#|---7-------7-------7-----5/7---------7---7---7---7---2---2---0----------|
D#|-----------------------------------8-------8-------3-------2------------|

Chorus x2 (listen to song for pattern)
G  C  D  Emin  C  D
[ Tab from: http://www.guitaretab.com/i/intheclear/170576.html ]
Post-Chorus x1
D#|------------------------------------------------------------------------|
A#|-------------------------------------------------------0-----0---0------|
F#|-------0-------0-------0-------0---------------------4-----0---2--------|
C#|-----9---9---9---9---9-------5---5-----9-------9---5-----4--------------|
G#|---7-------7-------7-----5/7---------7---7---7---7----------------------|
D#|-----------------------------------8-------8----------------------------|

Repeat Intro/Verse
Repeat Chorus

Bridge Part 1 x2 (listen to song for pattern)
C  D  A  Emin7

Bridge Part 2 x1 (play Intro/Verse x1 followed by Post-Chorus x1)

Bridge Part 3 x1 (strum chords from Bridge Part 1 just once, stopping at A strumming to 
the chorus)

Repeat Chorus x4 (end on C chord)
Related for Drown tab