Guitaretab - guitar tabs
Song name
# A B C D E F G H I J K L M N O P Q R S T U V W X Y Z

Into Eternity - Splintered Visions tab

* tune guitar 2 steps down to C *


------------------15--17--19--17--15----------------------|
---15--17--19---------------------------19--17--15--------|
----------------------------------------------------------|
----------------------------------------------------------|
----------------------------------------------------------|
----------------------------------------------------------|


------------------14--15--17--15--14----------------------|
---14--15--17---------------------------17--15--14--------|
----------------------------------------------------------|
----------------------------------------------------------|
----------------------------------------------------------|
----------------------------------------------------------|


------------------12--14--15--14--12----------------------|
---12--14--15---------------------------15--14--12--------|
----------------------------------------------------------|
----------------------------------------------------------|
----------------------------------------------------------|
----------------------------------------------------------|


------------------10--12--14--12--10----------------------|
---11--12--14----------------------------14--12--11-------|
----------------------------------------------------------|
----------------------------------------------------------|
----------------------------------------------------------|
----------------------------------------------------------|

here are the next two licks which come in after the speed picking at 0:11

---12--10--8----------------------------7--8--10--7--8--7------------|
----------------12--10--8---7--8--10-------------------------8-------|
---------------------------------------------------------------------|
---------------------------------------------------------------------|
---------------------------------------------------------------------|
---------------------------------------------------------------------|

---12--10--8----------------------------7--8--10--7--8--7------------|
----------------12--10--8---7--8--10---------------------------------|
----------------------------------------------------------------9----|
---------------------------------------------------------------------|
---------------------------------------------------------------------|
---------------------------------------------------------------------|


-----------------------15--19--15--14--17--15--14---------------------------|
------------------17-----------------------------------15-------------------|
-------------16----------------------------------------------14--12--11--12-|
--------17------------------------------------------------------------------|
---19-----------------------------------------------------------------------|
----------------------------------------------------------------------------|

[ Tab from: http://www.guitaretab.com/i/into-eternity/108654.html ]
-----------------------10--14--10--9--12--10--9-----------------------------|
------------------12----------------------------------10--------------------|
-------------11---------------------------------------------9--7--6--7------|
--------12------------------------------------------------------------------|
---14-----------------------------------------------------------------------|
----------------------------------------------------------------------------|


-----------------------5---9---5---3---7---3--------------------------------|
------------------7-------------------------------5-------------------------|
-------------6------------------------------------------4-------------------|
--------7-------------------------------------------------------------------|
---9---------------------------------------------------------7--------------|
----------------------------------------------------------------------------|


---12--10--8----------------------------7--8--10--7--8--7------------|
----------------12--10--8---7--8--10-------------------------8-------|
---------------------------------------------------------------------|
---------------------------------------------------------------------|
---------------------------------------------------------------------|
---------------------------------------------------------------------|


-----------------------15--19--15--14--17--15--14---------------------------|
------------------17-----------------------------------15-------------------|
---------------16---------------------------------------------14--12--11-12-|
--------17------------------------------------------------------------------|
---19-----------------------------------------------------------------------|
----------------------------------------------------------------------------|


-----------------------10--14--10--9--12--10--9-----------------------------|
------------------12----------------------------------10--------------------|
-------------11---------------------------------------------9--7--6--7------|
--------12------------------------------------------------------------------|
---14-----------------------------------------------------------------------|
----------------------------------------------------------------------------|


-----------------------5---9---5---3---7---3--------------------------------|
------------------7-------------------------------5-------------------------|
-------------6------------------------------------------4-------------------|
--------7-------------------------------------------------------------------|
---9---------------------------------------------------------7--------------|
----------------------------------------------------------------------------|

---12--10--8----------------------------7--8--10--7--8--7-----------|
----------------12--10--8---7--8--10--------------------------------|
----------------------------------------------------------------9---|
--------------------------------------------------------------------|
--------------------------------------------------------------------|
--------------------------------------------------------------------|
Related for Splintered Visions tab
×
Splintered Visions