Song name
# A B C D E F G H I J K L M N O P Q R S T U V W X Y Z

Into Eternity - Isolation tab

|-0-5-7-8----------|
|---------0-5-7-8--|
|------------------|
|------------------|
|------------------|
|------------------|

|-----------------|
|-----------------|
|-----5-7-8-7-5-4-|
|-0-4-------------|
|-----------------|
|-----------------|

then
|-0-5-7-8----------|
|---------0-5-7-8--|
|------------------|
|------------------|
|------------------|
|------------------|

|-10-8-7----------12---|
|--------10-8-7--------|
|----------------------|
|----------------------|
|----------------------|
|----------------------|


|-0-5-7-8----------|
|---------0-5-7-8--|
|------------------|
|------------------|
|------------------|
|------------------|

|-----------------|
|-----------------|
|-----5-7-8-7-5-4-|
|-0-4-------------|
|-----------------|
|-----------------|

finally

|-0-5-7-8----------|
|---------0-5-7-8--|
|------------------|
|------------------|
|------------------|
|------------------|


|-10-8-7----------1----|
|--------10-8-7--------|
|----------------9-----|
|----------------------|
|----------------------|
|----------------------|
this is all played reli fast

this is 100% right!!!:)
any problems contact me at emok1ller@hotmail.co.uk!!!
Tap to rate this tab
# A B C D E F G H I J K L M N O P Q R S T U V W X Y Z