Song name
# A B C D E F G H I J K L M N O P Q R S T U V W X Y Z

Into Eternity - Timeless Winter tab

			     SONG NAME - Band Name
-------------------------------------------------------------------------------
Tabbed by:jarid v
Email:midgetLover12000@Yahoo.com

Tuning:2 steps down

e|--18-17-15-----------------------------------------------------------------|
B|------------18-17-15-14-15-12----------------------------------------------|
G|------------------------------15-14-12-14-15-14-12-------------------------|
D|---------------------------------------------------15-14-12-11-------------|
A|---------------------------------------------------------------------------|
E|---------------------------------------------------------------------------|

e|--18-17-15-----------------------------------------------------------------|
B|------------18-17-15-14-15-12----------------------------------------------|
G|------------------------------15-14-12-14-15-14-12-------------------------|
D|---------------------------------------------------15-14-12-11-------------|
A|---------------------------------------------------------------------------|
E|---------------------------------------------------------------------------|

e|--13-12-10-----------------------------------------------------------------|
B|-----------13-12-10-9-10-9-------------------------------------------------|
G|---------------------------10-9-7-9-10-9-7---------------------------------|
D|-------------------------------------------10-9-7-6------------------------|
A|---------------------------------------------------------------------------|
E|---------------------------------------------------------------------------|

e|--13-12-10-----------------------------------------------------------------|
B|-----------13-12-10-9-10-9-------------------------------------------------|
G|---------------------------10-9-7-9-10-9-7---------------------------------|
D|-------------------------------------------10-9-7-6------------------------|
A|---------------------------------------------------------------------------|
E|---------------------------------------------------------------------------|

e|--18-17-15-----------------------------------------------------------------|
B|------------18-17-15-14-15-12----------------------------------------------|
G|------------------------------15-14-12-14-15-14-12-------------------------|
D|---------------------------------------------------15-14-12-11-------------|
A|---------------------------------------------------------------------------|
E|---------------------------------------------------------------------------|

e|--18-17-15-----------------------------------------------------------------|
B|------------18-17-15-14-15-12----------------------------------------------|
G|------------------------------15-14-12-14-15-14-12-------------------------|
D|---------------------------------------------------15-14-12-11-------------|
A|---------------------------------------------------------------------------|
E|---------------------------------------------------------------------------|

e|--13-12-10-----------------------------------------------------------------|
B|-----------13-12-10-9-10-9-------------------------------------------------|
G|---------------------------10-9-7-9-10-9-7---------------------------------|
D|-------------------------------------------10-9-7-6------------------------|
A|---------------------------------------------------------------------------|
E|---------------------------------------------------------------------------|

e|--13-12-10-----------------------------------------------------------------|
B|-----------13-12-10-9-10-9-------------------------------------------------|
G|---------------------------10-9-7-9-10-9-7---------------------------------|
D|-------------------------------------------10-9-7-6------------------------|
A|---------------------------------------------------------------------------|
E|---------------------------------------------------------------------------|





| /  slide up
| \  slide down
| h  hammer-on
| p  pull-off
| ~  vibrato
| +  harmonic
| x  Mute note
===============================================================================
Tap to rate this tab
# A B C D E F G H I J K L M N O P Q R S T U V W X Y Z