Guitaretab - guitar tabs
Song name
# A B C D E F G H I J K L M N O P Q R S T U V W X Y Z

Into Eternity - Suspension Of Disbelief tab

This is the intro to Suspension of Disbelief. This is the second song off the
new cd that guitarist Tim Roth has posted a lesson on, on youtube. Straight from the man 
Tune two steps down to C. I also tabbed out the chorus riff by watching him play it in 
video.

Suspension of Disbelief
Into Eternity
The Scattering of Ashes

Intro:
C---------------------------------------------------------------------------------|
G---------------------------------------------------------------------------------|
Eb--------------7--9--10---9--7-----------------------7--9--10---9--7-------------|
Bb---7--9--10----------------------10--9---7--9--10---------------------10--9-----|
F---------------------------------------------------------------------------------|
C---------------------------------------------------------------------------------|
[ Tab from: http://www.guitaretab.com/i/into-eternity/78768.html ]
C------------------------------------------------------10--12--13---12--10-----------|
G-----------------------------------------10--12--13-------------------------13--12--|
Eb--------------7--9--10---9--7------------------------------------------------------|
Bb---7--9--10---------------------10--9----------------------------------------------|
F------------------------------------------------------------------------------------|
C------------------------------------------------------------------------------------|


   (Use tremolo picking)
C----------------------------------------------------|
G----------------------------------------------------|
Eb---------------------------------------------------|
Bb--------------9--11--12---------------7--9--10-----|
F----------------------------7--9--10----------------|
C----7--9--10----------------------------------------|


Chorus:
C---------------------------------------------------|
G---------------------------------------------------|
Eb---------5--7----------5--9----------5--7---------|
Bb---2--7--5--7----2--7--5--7----2--7--5--7---------|
F----2--5--3--5----2--5--3--5----2--5--3--5---------|
C----0--3----------0--3----------0--3---------------|
Related for Suspension Of Disbelief tab
Advertisement will be closed in 10 seconds