Song name
# A B C D E F G H I J K L M N O P Q R S T U V W X Y Z

Into Eternity - Severe Emotional Distress tab

Hey, these are just some parts I've tabbed out of this song.

Standart Tuning

The intro chords:

e--------------------|
B--------------------|
G--------------8-----|
D-10---8-6---8-8---8-|
A-10---8-6---8-6---8-|
E-8----6-4---6-----6-|

Intro lead:

Guitar 1

e---------------------|
B---------------------|
G-5--7-8--10-12--8-10-|
D---------------------|
A---------------------|
E---------------------|

Guitar 2

e------------------------|
B------------------------|
G-8--10-12--13-15--12-13-|
D------------------------|
A------------------------|
E------------------------|

Some of the VERSES:
                                        NOW YOU'RE ON YOUR OWN
e-------------------------------------| (I couldn't tab this guitar part)
B-------------------------------------|
G-------------------------------------|
D----5----5-3----6----6-5----5----5-3-|  X3
A-------------------------------------|
E-111--111-1--111--111-1--111--111-1--|

SEVEEEERE EMOTIONAAAAAL DISTREEEEEEEEESS

e--------------------------------------|
B--------------------------------------|
G----------------10-----------------12-|
D---5--6--8--10--------5--6--8--10-----|    X2
A-00-00-00-00--00----00-00-00-00--00---|
E--------------------------------------|

CHORUS:

e--------------------|
B--------------------|
G--------------8-----|
D-10---8-6---8-8---8-|
A-10---8-6---8-6---8-|
E-8----6-4---6-----6-|

now there's an intrelude, again verse, and chorus, and solo which I couldn't tab.

again CHORUS:

e--------------------|
B--------------------|
G--------------8-----|
D-10---8-6---8-8---8-|
A-10---8-6---8-6---8-|
E-8----6-4---6-----6-|

Now final chorus:
Much too clear...
e--------------------------------------------------------------|
B--------------------------------------------------------------|
G---------------------------------8-------8--------------------|   X2
D-----10--------------6-----------8-------8-------8-------8----|
A-----10--------------6-------6666666666666666----8-------8----|
E-8888888888886666444444446666----------------6666666666666666-|

Outro:

Guitar 1

e-------------------------------------------|
B-------------------------------------------|
G-5--7-8--10-12--8-10---5--7-8--10-12--8-10-|
D-------------------------------------------|
A-------------------------------------------|
E-------------------------------------------|

Guitar 2

e----------------------------------------------|
B----------------------------------------------|
G-5--7-8--10-12--8-10---8--10-12--13-15--12-13-|
D----------------------------------------------|
A----------------------------------------------|
E----------------------------------------------|

Guitar 1+Guitar 2

e-------------------------------------------3-4------|
B------------3h4------------------------5s6----5s6---|
G-----3h5-3------6-5-3-6-5------3h5-3----------------|
D-6-3-------5-------------6-3---------5--------------|    X2
A----4------------------------4----------------------|
E----------------------------------------------------|

Guitar 1 - Slower

e-------------------------------------------3-4------|
B------------3h4------------------------5s6----5s6---|
G-----3h5-3------6-5-3-6-5------3h5-3----------------|
D-6-3-------5-------------6-3---------5--------------|    X2
A----4------------------------4----------------------|
E----------------------------------------------------|

Guitar 2 - Slower
      Don't pick the bends, you just hold 8th fret and bend it, no picking!

e--6-8-8b-8-6-6-8------6-8-8b-8-6--11-9-8-6--|
B-9----------9---8s9--9----------------------|
G--------------------------------------------|
D--------------------------------------------|
A--------------------------------------------|
E--------------------------------------------|

e--------------------------------------|
B--------------------------------------|
G----------------10-----------------12-|
D---5--6--8--10--------5--6--8--10-----|    X2
A-00-00-00-00--00----00-00-00-00--00---|
E--------------------------------------|


Enjoy, eldad.
Tap to rate this tab
# A B C D E F G H I J K L M N O P Q R S T U V W X Y Z