Song name
# A B C D E F G H I J K L M N O P Q R S T U V W X Y Z

Into Eternity - Elysium Dream tab

-------------------------------------------------------------------------------
			     Elysium Dream - Into Eternity
-------------------------------------------------------------------------------
Tabbed by Rob
Email: patsfan411@msn.com

Tuning: (2 Steps Down) C F A# D# G C
Intro
(Slides are quick and on the beat)
e|--8/12--8-10-------------------5/7-3---5/8-7-------7-----------------------|
B|---------------10--------------------5-------8---8-------------------------|
G|-------------9-----------5-4-------------------9---------------------------|
D|-----------------------7---------------------------------------------------|
A|---------------------5-----------------------------------------------------|
E|---------------------------------------------------------------------------|

| /  slide up
| \  slide down
| h  hammer-on
| p  pull-off
| ~  vibrato
| +  harmonic
| x  Mute note
===============================================================================
Tap to rate this tab
# A B C D E F G H I J K L M N O P Q R S T U V W X Y Z