Guitaretab - guitar tabs
Song name
# A B C D E F G H I J K L M N O P Q R S T U V W X Y Z

Into It Over It - Logan Square tab

Verse:
d#|----------------------------------------------------------------------------|
G#|----0--------0--------0--------0--------0--------0--------0-------0---------|
G |------0--------0--------0--------0--------0--------0--------0-------0-------|
D#|--------0--------0--------0--------0--------0--------0--------0-------0-----|
G#|--------------------4--------2--------0--------0--------0--------0----------|
D#|--0--------0----------------------------------------------------------------|

"But while you've been gone..."
d#|----------------------------------------------------------------------------|
G#|----0--------0--------0--------0--------0--------0--------0-------0---------|
G |------0--------0--------0--------0--------0--------0--------0-------0-------|
D#|--------0--------0--------0--------0--------0--------0--------0-------0-----|
G#|--2--------2--------2---------2-------0--------0--------0--------0----------|
D#|----------------------------------------------------------------------------|
[ Tab from: http://www.guitaretab.com/i/into-it-over-it/311205.html ]
d#|---------------------------------------|
G#|----0--------0--------0--------0-------|
G |------0--------0--------0--------0-----|
D#|--------0--------0--------0--------0---|
G#|--0--------0---------2--------2--------|
D#|---------------------------------------|

Solo:
This isn't close to perfect, but the basic sounds are there.
d#|-7/12-12--------12------11-----7-----------------0---0-7--5--4-------------|
G#|----------9h11------11------11---11---7-7--9--11---------------------------|
G |----------------------------------------------------------------12-10-8----|
D#|---------------------------------------------------------------------------|
G#|---------------------------------------------------------------------------|
D#|---------------------------------------------------------------------------|

d#|-------------------------------------------------|------------------*12-----------------|
G#|--------------------------------------11---------|------------------*12-----------------|
G |------8--------10-------------------8------------|-----8--10--12----*12-----------------|
D#|--------7---------11-12------------------7/12----|------------------*12-----------------|
G#|--7h9-----9----------------11--9\7---------------|--------------------------------------|
D#|-------------------------------------------------|--------------------------------------|
Related for Logan Square tab
Logan Square chords by Into It Over It