Song name
# A B C D E F G H I J K L M N O P Q R S T U V W X Y Z

Intoxicados - Fuego tab

-------------------------------------------------------------------------------
			     Fuego-Intoxicados                                       
-------------------------------------------------------------------------------
Tabbed by: Yanco
Email: nico_yanco44@hotmail.com


e|-----10-9-9-7-7------------------------------------------------------------|
B|---------------10-10--7----------------------------------------------------|
G|---------------------------------------------------------------------------|
D|---------------------------------------------------------------------------|
A|---------------------------------------------------------------------------|
E|---------------------------------------------------------------------------|


e|-----10-9-9-7-7------------------------------------------------------------|
B|---------------10-10--7----------------------------------------------------|
G|---------------------------------------------------------------------------|
D|---------------------------------------------------------------------------|
A|---------------------------------------------------------------------------|
E|---------------------------------------------------------------------------|


e|-----10-9-9-7-7------------------------------------------------------------|
B|---------------10-10--7----------------------------------------------------|
G|---------------------------------------------------------------------------|
D|---------------------------------------------------------------------------|
A|---------------------------------------------------------------------------|
E|---------------------------------------------------------------------------|


e|---------------------------------------------------------------------------|
B|-----7-8-7-8-7-8-10--------------------------------------------------------|
G|---------------------------------------------------------------------------|
D|---------------------------------------------------------------------------|
A|---------------------------------------------------------------------------|
E|---------------------------------------------------------------------------|


e|-----10-9-9-7-7------------------------------------------------------------|
B|---------------10-10--7----------------------------------------------------|
G|---------------------------------------------------------------------------|
D|---------------------------------------------------------------------------|
A|---------------------------------------------------------------------------|
E|---------------------------------------------------------------------------|


e|-----10-9-9-7-7------------------------------------------------------------|
B|---------------10-10--7----------------------------------------------------|
G|---------------------------------------------------------------------------|
D|---------------------------------------------------------------------------|
A|---------------------------------------------------------------------------|
E|---------------------------------------------------------------------------|


e|---------------------------------------------------------------------------|
B|-----7-8-7-8-10------------------------------------------------------------|
G|---------------------------------------------------------------------------|
D|---------------------------------------------------------------------------|
A|---------------------------------------------------------------------------|
E|---------------------------------------------------------------------------|


e|---------------------------------------------------------------------------|
B|----8-7-8-7-8-7-8----------------------------------------------------------|
G|------------------10-8-----------------------------------------------------|
D|---------------------------------------------------------------------------|
A|---------------------------------------------------------------------------|
E|---------------------------------------------------------------------------|


While this the second guitar plays the chords   ...D...A...G...A...
enjoy playng this very good song...
the chords for the song are the same as for the intro...
so you will be able to play it...
Tap to rate this tab
# A B C D E F G H I J K L M N O P Q R S T U V W X Y Z