Song name
# A B C D E F G H I J K L M N O P Q R S T U V W X Y Z

Introvoys - Will I Surviive tab

Help us improve GuitareTab! Take a short survey!
will i survive- introvoys
one of my favorite songs, galing eh,
this is my first tab hope you'll enjoy.

close to you..

e:--15b-15b-15b-15b---15b-12-13---10--------------------------------------|
B:-----------------------------------13-12-10-12-12h13-12vv---------------|
G:------------------------------------------------------------------------|
D:------------------------------------------------------------------------|
A:------------------------------------------------------------------------|
E:------------------------------------------------------------------------|




e:------------------------------------------------------------------------|
B:---------12-13-12-15b-15----------12-13-12-15b-15b-15b------------------|
G:--12-14------------------12--14-----------------------------------------|
D:------------------------------------------------------------------------|
A:------------------------------------------------------------------------|
E:------------------------------------------------------------------------|




                                                              
e:------------------------------------------------------------------------|
B:--13h15p13--12h13p12----------------------------------------------------|
G:---------------------14-12----12s14vv-----------------------------------|
D:---------------------------14-------------------------------------------|
A:------------------------------------------------------------------------|
E:------------------------------------------------------------------------|


 that's the main solo.comments and suggestions txt me 09156138522 im aldrich manabat.  
Related for Will I Surviive tab