Song name
# A B C D E F G H I J K L M N O P Q R S T U V W X Y Z

Intwine - Feel Free tab

#----------------------------------PLEASE NOTE--------------------------------#
#This file is the author's own work and represents their interpretation of the#
#song. You may only use this file for private study, scholarship, or research.#
#-----------------------------------------------------------------------------#


Author/Artist: Intwine
Title: Feel Free
Album: Intwine (debut album)
Transcribed by: 0/\/3 
Tuning: Standard


I think its 95% correct.

Intro: repeat 8 times

e|----------------------------------------------|
B|--1h2-2h4-0---------2p0---------2--------4----|
G|------------3-----3-----3------------------3--|
D|----------------1------------4----4----4------|
A|---------------------------2------------------|
E|-------------------------------------1--------|


repeat 2 times

e|--x---x---x-x-x--x-x---x---x---x-x-x--x--|
B|--2---2---2-x-2--2-2---1---1---1-x-1--1--|
G|--4---4---4-x-4--4-4---3---3---3-x-3--3--|
D|--4---4---4-x-4--4-4---3---3---3-x-3--3--|
A|--2---2---2-x-2--2-2---1---1---1-x-1--1--|
E|--2---2---2-x-2--2-2---1---1---1-x-1--1--|

e|--x---x---x-x-x--x-x---x---x---x-x-x--x--x---X-X-X--|
B|--2---2---2-x-2--2-2---4---4---4-x-4--x--1---1-X-1--|
G|--4---4---4-x-4--4-4---6---6---6-x-6--x--3---3-X-3--|
D|--4---4---4-x-4--4-4---6---6---6-x-6--x--3---3-X-3--|
A|--2---2---2-x-2--2-2---4---4---4-x-4--x--1---1-X-1--|
E|--2---2---2-x-2--2-2---4---4---4-x-4--x--1---1-X-1--|

Enjoy!!

0/\/3
Tap to rate this tab
# A B C D E F G H I J K L M N O P Q R S T U V W X Y Z