Guitaretab - guitar tabs
Song name
# A B C D E F G H I J K L M N O P Q R S T U V W X Y Z

Intwine - Cruel Man tab

Begin + Couplet 1(Clean):
e|------------------------| e----------------------------|
B|------------------------| B----------------------------|
G|-(4)(4)---------(4)--(4)| 3x G-4slide1--1-1-1-1--4--4--|
D|-----------------7--x-7-| D-------------------7--7-----|
A|--4--4--x-x-x-x--7--x-7-| A-4-----4--x-x-x-x--7--7-----|
E|--4--4--x-x-x-x---------| E-4-----4--x-x-x-x--7--7-----|
Sake of preaching this to you
Nobody listens Think thereís something and they treat you like a fool
Thought that is was clear
Nobody said that life was fair

Half Refrein(Clean):
e|-------------------------------------------------------|
B|-------------------------------------------------------|
G|----2------------6--6--6----------------------2--------|
D|----4-----7----6-6--6--6----------------------4-----7--|
A|--4-4---7-7---4--4--4--4----4-6-6s7-6-4-6---4-4---7-7--|
E|-2-----5--5----------------4---------------2-----5--5--|
ĎCause Iím a cruel man, Iíll take it all away
And Iím a King that makes youÖstay


e|----4------7--5--4---4--4------7--5--4---4--|
B|---5--5------------5------5------------5----|
G|--6-----6-------------------6---------------|
D|--------------------------------------------|
A|--------------------------------------------|
E|--------------------------------------------|

e|--454------7--5--4---4---9--------9--------|
B|------5------------5-----------------------|
G|--------6------------------9----9---9----9-|
D|-----------------------------11-------11---|
A|-------------------------------------------|
E|-------------------------------------------|

Couplet 2
Someone said far long ago
What would you along this way
Feeliní lucky, wanna play
Donít do as I do
Just do exactly as I say


Refrein(Distorted):
e|----------------------------------------|
B|----------------------------------------|
G|-------------------6--6---x-x-x-x-------|
D|---4--4----7--7----6--6---x-x-x-x--6--6-|
A|---4--4----7--7----4--4---x-x-x-x--6--6-|
E|---2--2----5--5--------------------4--4-|
'Cause I'm a Cruel Man, I'll take it all away
[ Tab from: http://www.guitaretab.com/i/intwine/65204.html ]
e|--------------------------------|
B|--------------------------------|
G|-------------------6------------|
D|---7--7----9--9----6-7--6-------|
A|---7--7----9--9----4-7--6--4-2--|
E|---5--5----7--7------------4-2--|
And I'm a King, I'll make you pay

e|----------------------------------------|
B|----------------------------------------|
G|-------------------6--6---x-x-x-x-------|
D|---4--4----7--7----6--6---x-x-x-x--6--6-|
A|---4--4----7--7----4--4---x-x-x-x--6--6-|
E|---2--2----5--5--------------------4--4-|
'Cause I'm a Cruel Man, I'll burn it all away

e|----------------------|
B|----------------------|
G|-------------------6--|
D|---7--7----9--9----6--|
A|---7--7----9--9----4--|
E|---5--5----7--7-------|
And I'm a King, and I'm here to...stay

Distorted
e|------------------------|
B|------------------------|
G|------------------------| 4x
D|---7649-76--7-6--6-9-11-|
A|--4----4-----4-4--------|
E|------------------------|

e|------------------------------------|
B|------------------------------------|
G|------------------------------------| 2x
D|----7--6------9-------7--6-----9-9--|
A|-4--7--6--4---9----4--7--6--4--9-9--|
E|-4--------4--------4--------4-------|
Iíll take it all away, Iíll burn it al away 2x

Refrein:

e|------------------------------------------|
B|------------------------------------------|
G|---------------------6--6---x-x-x-x-------|
D|---------------------6--6---x-x-x-x--6--6-|
A|---------------------4--4---x-x-x-x--6--6-|
E|-------------------------------------4--4-|
'Cause I'm a Cruel Man, I'll take it all away

e|-------------------------------------------------------|
B|-------------------------------------------------------|
G|-------------------------------------------------------|
D|---7--7----9--9-----------------4h6-6-4h6-6-4h6-6-4h6-6|
A|---7--7----9--9---2h4-4-2h4-4--------------------------|
E|---5--5----7--7----------------------------------------|
And I'm a King, I'll make you pay

e|----------------------------------------|
B|----------------------------------------|
G|-------------------6--6---x-x-x-x-------|
D|---4--4----7--7----6--6---x-x-x-x--6--6-|
A|---4--4----7--7----4--4---x-x-x-x--6--6-|
E|---2--2----5--5--------------------4--4-|
'Cause I'm a Cruel Man, I'll burn it all away

e|--------------------------------|
B|--------------------------------|
G|-------------------6------------|
D|---7--7----9--9----6-7--6-------|
A|---7--7----9--9----4-7--6--4-2--|
E|---5--5----7--7------------4-2--|
And I'm a King, and I'm here to stay
Related for Cruel Man tab