Song name
# A B C D E F G H I J K L M N O P Q R S T U V W X Y Z

Inugami Circus-dan - Kugai Jyoudo tab

Help us improve GuitareTab! Take a short survey!
Tabbed by: DarkEyesXIII

Song: Kugai Jyoudo
Song By: Inugami Circus Dan




This is my very first Tab... there may be some mistakes.

Standard Tuning: EADGBe



Main Riff:

     ^  v   ^  v   ^  v   ^  v                              Let Ring~
e|---10-10--10-10--10-10--10-10---------------|     e|---10~-----------|  
B|---11-11--11-11--10-10--10-10---------------|     B|---10~-----------|
G|--------------------------------------------| x4  G|-----------------|
D|--------------------------------------------|     D|-----------------|
A|--------------------------------------------|     A|-----------------|
E|--------------------------------------------|     E|-----------------|


                                                           __
                                                             |
     ^  v   ^  v   ^  v   ^  v   ^  v   ^  v     Let Ring~   |
e|---10-10--10-10--10-10--10-10--10-10--10-10--10~-------|   |  
B|---11-11--11-11--10-10--10-10--11-11--11-11--10~-------|   |
G|-------------------------------------------------------|   |
D|-------------------------------------------------------|   |
A|-------------------------------------------------------|   | 
E|-------------------------------------------------------|   |
                                                             |
                                                             |> 2x
     ^  v   ^  v   ^  v   ^  v   ^ v  ^ v  ^   ^  v          |
e|---11-11--11-11--10-10--10-10--8-8--8-8--10--10-10-----|   |
B|---13-13--13-13--11-11--11-11--8-8--8-8--10--10-10-----|   |
G|-------------------------------------------------------|   |
D|-------------------------------------------------------|   |
A|-------------------------------------------------------|   |
E|-------------------------------------------------------|   |
                                                           __|


            ^  v   ^  v   ^  v   ^  v
       e|---10-10--10-10--10-10--10-10---|
       B|---11-11--11-11--10-10--10-10---|
Then:  G|--------------------------------|
       D|--------------------------------|
       A|--------------------------------|
       E|--------------------------------|


Refrain: Distortion                         __
                                              |
e|----------------------------------------|   |
B|----------------------------------------|   |
G|----------------------------------------|   |
D|---5----5--12----12--15----15--10-------|   |
A|---5----5--12----12--15----15--10-------|   |
E|---3----3--10----10--13----13--8--------|   |
                                              |  x2
e|----------------------------------------|   |
B|----------------------------------------|   |
G|----------------------------------------|   |
D|---10--13----13--8----8--10----10--12---|   |
A|---10--13----13--8----8--10----10--12---|   |
E|---8---11----11--6----6--8-----8---10---|   |
                                            __|


Main Riff again:

     ^  v   ^  v   ^  v   ^  v                           pm
e|---10-10--10-10--10-10--10-10---------------|     e|---10--10-10-----|  
B|---11-11--11-11--10-10--10-10---------------|     B|---10--10-10-----|
G|--------------------------------------------| x4  G|-----------------|
D|--------------------------------------------|     D|-----------------|
A|--------------------------------------------|     A|-----------------|
E|--------------------------------------------|     E|-----------------|
                                                         

                                                           __
                                                             |
     ^  v   ^  v   ^  v   ^  v   ^  v   ^  v     Let Ring~   |
e|---10-10--10-10--10-10--10-10--10-10--10-10--12~-------|   |  
B|---11-11--11-11--10-10--10-10--11-11--11-11--19~-------|   |
G|-------------------------------------------------------|   |
D|-------------------------------------------------------|   |
A|-------------------------------------------------------|   | 
E|-------------------------------------------------------|   |
                                                             |
                                                             |> 2x
     ^  v   ^  v   ^  v   ^  v   ^ v  ^ v  ^   ^  v          |               
e|---11-11--11-11--10-10--10-10--8-8--8-8--10--10-10-----|   |
B|---13-13--13-13--11-11--11-11--8-8--8-8--10--10-10-----|   |  
G|-------------------------------------------------------|   | 
D|-------------------------------------------------------|   | 
A|-------------------------------------------------------|   | 
E|-------------------------------------------------------|   | 
                                                           __|

            ^  v   ^  v   ^  v   ^  v
       e|---10-10--10-10--10-10--10-10---|
       B|---11-11--11-11--10-10--10-10---|
Then:  G|--------------------------------|
       D|--------------------------------|
       A|--------------------------------|
       E|--------------------------------|



Refrain: Distortion                         __
                                              |
e|----------------------------------------|   |
B|----------------------------------------|   |
G|----------------------------------------|   |
D|---5----5--12----12--15----15--10-------|   |
A|---5----5--12----12--15----15--10-------|   |
E|---3----3--10----10--13----13--8--------|   |
                                              |  x2
e|----------------------------------------|   |
B|----------------------------------------|   |
G|----------------------------------------|   |
D|---10--13----13--8----8--10----10--12---|   |
A|---10--13----13--8----8--10----10--12---|   |
E|---8---11----11--6----6--8-----8---10---|   |
                                            __|



Just repeat the parts! Figure it out by yourself.. it's very easy!! ^_^


Related for Kugai Jyoudo tab