Song name
# A B C D E F G H I J K L M N O P Q R S T U V W X Y Z

Inxs - I Need You Tonight tab

-------------------------------------------------------------------------------
			  "I Need You Tonight" --- INXS
-------------------------------------------------------------------------------

Tabbed by: [travis]

Tuning:
Guitar 1: Standard (EADGBE)
Guitar 2: Standard (EADGBE)
Guitar 3: Standard (EADGBE)
Guitar 4: Drop D (DADGBE)


Key: ????


Legend:
... = palm mute
h = hammer on
p = pull off
b = bend
x = muffled string(s)
1 = whole step bend
.5 = half step bend
/ = slide up
\ = slide down
h/ = one pick
h/p\ = one pick


Guitar 1:
e|-------------|
B|-13--13--13--|
G|-12--12--12--|
D|-10--10--10--| 
A|-------------|
E|-------------|

Guitar 2:
e|-11-11-11-11-10-10-10-8-|
B|-11-11-11-11-10-10-10-8-|
G|------------------------| 
D|------------------------|
A|------------------------|
E|------------------------|

==================================================
Guitar 3: Light palm mute. Play this for the rest of the song.
e|----------------------------------------|
B|----------------------------------------|
G|-5-5-7-8-7--5-7-8-7--5-5-7-8-7--5-7-8-7-|
D|----------------------------------------|
A|----------------------------------------|
E|----------------------------------------|
   ......................................

==================================================
Guitar 4: This is a little bit after the chorus.
e|-------------------------------------------|
B|-------------------------------------------|
G|-------------------------------------------|
D|-------------------------------------------|
A|-3--1--3----3--1--3----3--1--3----3--1--3--|
D|-------------------------------------------|

==================================================
Guitar 4: This is close towards the end of the song.
e|--------------------------------------------|
B|--------------------------------------------|
G|--------------------------------------------|
D|--------------------------------------------|
A|-3--1--3----------------3--1--3-------------|
D|----------3--3--1--3-------------3--3--1--3-|


That's pretty much all you'll need to play this song.
Please rate and comment this tab.
[travis]


Tap to rate this tab
# A B C D E F G H I J K L M N O P Q R S T U V W X Y Z