Song name
# A B C D E F G H I J K L M N O P Q R S T U V W X Y Z

Inxs - Stay Young tab

Stay Young - INXS
--------------------------------

Intro

Synth

|------------------------------|
|------------------------------|
|----------------12------------|
|--12~---14-15------10---12----|
|---------------------------10-|
|------------------------------|


Verse

(Barre chords can be used also)


 Dm	F	C	G

|--1-----1------0-------3---|
|--3-----1------1-------3---|
|--2-----2------0-------0---|
|--0-----3------2-------0---|
|---------------3-------2---|
|-----------------------3---|

Chorus


   Bb	 C

|------------|
|--3-----5---|
|--3-----5---|
|--3-----5---|
|--1-----3---|
|------------|


Post Chorus Riff

|----------------------------|
|----------------------------|
|--7-5---5-7-5---5-7-5---5---|
|------7-------7-------7---5-|
|----------------------------|
|----------------------------|


Break

Synth riff underneath guitar (I recommend playing softly on guitar)

|--------------------|
|--10-12-13-10-10----|
|--------------------|
|--------------------|  x15
|--------------------|
|--------------------|


Guitar overlay bit (Heavier sound with some delay)

|---------13-----------12-------------|
|--10/12--------10/12-------10/12--10-|
|-------------------------------------|
|-------------------------------------|
|-------------------------------------|
|-------------------------------------|


Tab created By Ryan Cassidy

If you wanna use it somewhere just ask  ;)
Tap to rate this tab
# A B C D E F G H I J K L M N O P Q R S T U V W X Y Z