Song name
# A B C D E F G H I J K L M N O P Q R S T U V W X Y Z

Inxs - Pretty Vegas tab

-------------------------------------------------------------------------------
			     "Pretty Vegas" --- INXS
-------------------------------------------------------------------------------

Tabbed by: [travis]


I decided to tab out this song, because this site doesn't have a
single good version of it. Plus, it's my favorite INXS song, and
New Sensation, but I tabbed this one out. This is all tabbed out
by ear, so go easy on me if some parts are a hair off a bit.

Tuning: Standard: E A D G B E (low to high)


Key: F Major (F G A Bb C D E F)


Legend:
... = palm mute
/ = slide up
\ = slide down
() = note barely heard, or bring bent note back to normal
__ = hold bend
b = bend
h = hammer on
p = pull off
1 = whole step bend
.5 = half step bend
x = muted string.


Intro: Singing starts the second time.
Guitar 1: I think you can use a lite palm mute on some chords here.
e|------------------------|
B|------------------------|
G|-5-5--3---5-5--5--3--3--|
D|-5-5--3---5-5--5--3--3--| x2
A|-3-3--1---3-3--3--1--1--|
E|------------------------|

Guitar 2: This is in the backround.
e|-------------------------|
B|-------------------------|
G|-------------------------|
D|-------------------------| x2
A|-3-3-3-3-3-3-1-1-1-1-1-1-|
E|-------------------------|
   .......................

==============================================
Drums come in here.
Guitar 1: I think you can use a lite palm mute on some chords here.
e|------------------------|
B|------------------------|
G|-5-5--3---5-5--5--3--3--|
D|-5-5--3---5-5--5--3--3--| x3
A|-3-3--1---3-3--3--1--1--|
E|------------------------|

Guitar 2: This is in the backround.
e|-------------------------|
B|-------------------------|
G|-------------------------|
D|-------------------------| x3
A|-3-3-3-3-3-3-1-1-1-1-1-1-|
E|-------------------------|
   .......................


Guitar 3:
e|----------------|
B|----------------|
G|----------------|
D|----------1~~~--| x2
A|-3--1--3--------|
E|----------------|


===================================================
Guitar 1: I think you can use a lite palm mute on some chords here.
e|------------------------|
B|------------------------|
G|-5-5--3---5-5--5--3--3--|
D|-5-5--3---5-5--5--3--3--| x4
A|-3-3--1---3-3--3--1--1--|
E|------------------------|

Guitar 2: This is in the backround.
e|-------------------------|
B|-------------------------|
G|-------------------------|
D|-------------------------| x4
A|-3-3-3-3-3-3-1-1-1-1-1-1-|
E|-------------------------|
   .......................


Guitar 3:
e|----------------|
B|----------------|
G|----------------|
D|----------1~~~--| x3
A|-3--1--3--------|
E|----------------|

=====================================================
Chorus:
Guitar 1:
e|-----------------------------------|
B|-----------------10-10-10-10-10-10-|
G|-5--5---3-3------10-10-10-10-10-10-|
D|-5--5---3-3------10-10-10-10-10-10-| x4
A|-3--3---1-1----1/-8--8--8--8--8--8-|
E|-----------------------------------|

Guitar 2:
e|---------------------------|
B|-5--5---3-3----6-6-6-6-6-6-|
G|-0--0---3-3----5-5-5-5-5-5-|
D|-5--5---3-3----3-3-3-3-3-3-| x4
A|-3--3---1-1----------------|
E|---------------------------|

=====================================================
Pro Chorus:
Guitars 1 and 2: Listen for rhythm of each chord.
e|--------|
B|--------|
G|-3------|
D|-3---3--| x2
A|-1---3--|
E|-----1--|

Guitar 3: Listen for rhythm of each chord.
e|--------|
B|----10--|
G|-8--10--|
D|-8--10--| x2
A|-8---8--|
E|-6------|

======================================================
Guitar 1: I think you can use a lite palm mute on some chords here.
e|------------------------|
B|------------------------|
G|-5-5--3---5-5--5--3--3--|
D|-5-5--3---5-5--5--3--3--| x2
A|-3-3--1---3-3--3--1--1--|
E|------------------------|

Guitar 2: This is in the backround.
e|-------------------------|
B|-------------------------|
G|-------------------------|
D|-------------------------| x2
A|-3-3-3-3-3-3-1-1-1-1-1-1-|
E|-------------------------|
   .......................

==============================================
Drums come in here.
Guitar 1: I think you can use a lite palm mute on some chords here.
e|------------------------|
B|------------------------|
G|-5-5--3---5-5--5--3--3--|
D|-5-5--3---5-5--5--3--3--| x3
A|-3-3--1---3-3--3--1--1--|
E|------------------------|

Guitar 2: This is in the backround.
e|-------------------------|
B|-------------------------|
G|-------------------------|
D|-------------------------| x3
A|-3-3-3-3-3-3-1-1-1-1-1-1-|
E|-------------------------|
   .......................


Guitar 3:
e|----------------|
B|----------------|
G|----------------|
D|----------1~~~--| x2
A|-3--1--3--------|
E|----------------|


===================================================
Guitar 1: I think you can use a lite palm mute on some chords here.
e|------------------------|
B|------------------------|
G|-5-5--3---5-5--5--3--3--|
D|-5-5--3---5-5--5--3--3--| x4
A|-3-3--1---3-3--3--1--1--|
E|------------------------|

Guitar 2: This is in the backround.
e|-------------------------|
B|-------------------------|
G|-------------------------|
D|-------------------------| x4
A|-3-3-3-3-3-3-1-1-1-1-1-1-|
E|-------------------------|
   .......................


Guitar 3:
e|----------------|
B|----------------|
G|----------------|
D|----------1~~~--| x3
A|-3--1--3--------|
E|----------------|

Guitar 4: This is in the very backround, it only plays on the 3rd or 4th time you play 
verse.
          .5____
e|------------------------|
B|-5~-----4b----(4)-------|
G|-5~---------------5~~~~-|
D|-5~---------------------|
A|-3~---------------------|
E|------------------------|

=====================================================
Chorus:
Guitar 1:
e|-----------------------------------|
B|-----------------10-10-10-10-10-10-|
G|-5--5---3-3------10-10-10-10-10-10-|
D|-5--5---3-3------10-10-10-10-10-10-| x4
A|-3--3---1-1----1/-8--8--8--8--8--8-|
E|-----------------------------------|

Guitar 2:
e|---------------------------|
B|-5--5---3-3----6-6-6-6-6-6-|
G|-0--0---3-3----5-5-5-5-5-5-|
D|-5--5---3-3----3-3-3-3-3-3-| x4
A|-3--3---1-1----------------|
E|---------------------------|

=====================================================
Pro Chorus:
Guitars 1 and 2: Listen for rhythm of each chord.
e|--------|
B|--------|
G|-3------|
D|-3---3--| x2
A|-1---3--|
E|-----1--|

Guitar 3: Listen for rhythm of each chord.
e|--------|
B|----10--|
G|-8--10--|
D|-8--10--| x2
A|-8---8--|
E|-6------|

======================================================
"The Party's over..."
Guitar 1:
e|-----12----13~~-----12-----------12-------13~~~----12--------|
B|--------13--------------13~~--------13-13--------------13~~~-|
G|-12--------------12-----------12----------------12-----------|
D|-------------------------------------------------------------| x2
A|-------------------------------------------------------------|
E|-------------------------------------------------------------|

Guitar 2: I might be a bit off with this part, because it's hard to hear what chords 
playing.
          Listen for the rhythm of both chords. Play this over Guitar 1.
e|---------|
B|---------|
G|--10-----| x8
D|--10---8-|
A|---8---8-|
E|-------6-|

========================================================
Guitars 1 and 2: Listen for rhythm of each chord.
e|--------|
B|--------|
G|-3------|
D|-3---3--|
A|-1---3--|
E|-----1--|

Guitar 3: Listen for rhythm of each chord.
e|--------|
B|----10--|
G|-8--10--|
D|-8--10--|
A|-8---8--|
E|-6------|

===========================================================
Interlude:
Guitar 1: Listen for timing. This comes a little after Guitar 1. About 2 Seconds after.
e|--------------------|
B|-5--5-5---3-3--5----|
G|-5--5-5---3-3--5----|
D|-5--5-5---3-3--5----|
A|--------------------|
E|--------------------|

Guitar 2:
e|---------------|
B|-5---3-3---5---|
G|-5---3-3---5---|
D|-5---3-3---5---|
A|-3---1-1---3---|
E|---------------|

Guitar 3:
e|-----------------|
B|-----------------|
G|-----------------|
D|----------1~~~~--|
A|-3--1--3---------|
E|-----------------|

===============================================================
Guitar 1: I think you can use a lite palm mute on some chords here.
e|------------------------|
B|------------------------|
G|-5-5--3---5-5--5--3--3--|
D|-5-5--3---5-5--5--3--3--| x4
A|-3-3--1---3-3--3--1--1--|
E|------------------------|

Guitar 3:
e|-----------------|
B|-----------------|
G|-----------------|
D|----------1~~~~--| x2
A|-3--1--3---------|
E|-----------------|

===============================================================
Guitar 1: I think you can use a lite palm mute on some chords here.
e|------------------------|
B|------------------------|
G|-5-5--3---5-5--5--3--3--|
D|-5-5--3---5-5--5--3--3--| x3
A|-3-3--1---3-3--3--1--1--|
E|------------------------|

Guitar 3:
e|-----------------|
B|-----------------|
G|-----------------|
D|----------1~~~~--| x2
A|-3--1--3---------|
E|-----------------|

===============================================================
Guitars 1 and 2: Listen for rhythm of each chord.
e|--------|
B|--------|
G|-3------|
D|-3---3--| x2
A|-1---3--|
E|-----1--|

Guitar 3: Listen for rhythm of each chord.
e|--------|
B|----10--|
G|-8--10--|
D|-8--10--| x2
A|-8---8--|
E|-6------|

===============================================================
Chorus:
Guitar 1:
e|-----------------------------------|
B|-----------------10-10-10-10-10-10-|
G|-5--5---3-3------10-10-10-10-10-10-|
D|-5--5---3-3------10-10-10-10-10-10-| x4
A|-3--3---1-1----1/-8--8--8--8--8--8-|
E|-----------------------------------|

Guitar 2:
e|---------------------------|
B|-5--5---3-3----6-6-6-6-6-6-|
G|-0--0---3-3----5-5-5-5-5-5-|
D|-5--5---3-3----3-3-3-3-3-3-| x4
A|-3--3---1-1----------------|
E|---------------------------|

=====================================================
Pro Chorus:
Guitars 1 and 2: Listen for rhythm of each chord.
e|--------|
B|--------|
G|-3------|
D|-3---3--|
A|-1---3--|
E|-----1--|

Guitar 3: Listen for rhythm of each chord.
e|--------|
B|----10--|
G|-8--10--|
D|-8--10--|
A|-8---8--|
E|-6------|

======================================================
Guitars 1,2,3 : End with this chord:
e|---------|
B|---5~~~--|
G|---5~~~--|
D|---5~~~--|
A|---3~~~--|
E|---------|


Please Comment and Rate this tab.
[travis]
Tap to rate this tab
# A B C D E F G H I J K L M N O P Q R S T U V W X Y Z