Song name
# A B C D E F G H I J K L M N O P Q R S T U V W X Y Z

Inxs - New Sensation tab

-------------------------------------------------------------------------------
			     "New Sensation" --- INXS
-------------------------------------------------------------------------------

Tabbed by: [travis]


Tuning: Standard: E A D G B E (low to high)


Key: E Major


Legend:
... = palm mute
x = muffled string
/ = slide up
\ = slide down
h = hammer on
p = pull off
b = bend
1 = whole step bend
() = bring bent note back to normal
__ = hold bend
h/ = one pick
h/p\ = one pick

Intro
Guitar 1: You can play either the left bar or right bar.
Which ever way is easier for you to play.
Listen for rhythm on both chords.
Play this riff through the whole song.
e|-----------|--12---9-----|
B|-17---14---|--12---10----|
G|-16---14---|---9---9-----|
D|-14---14---|-------------|
A|-----------|-------------|
E|-----------|-------------|

=============================================
Guitar 2:
e|--------------------|
B|--------------------|
G|--------------------|
D|--------------------|
A|-0h2~~~~~----0~~~~~-|
E|--------------------|

==============================================
Guitar 2:
e|--------------------------|
B|--------------------------|
G|--------------------------|
D|---------2-2------2-2---2-|
A|-2-2-5-5--------5-----5---|
E|--------------------------|

==============================================
Guitar 2:
e|--------------------|
B|--------------------|
G|--------------------|
D|--------------------|
A|-0h2~~~~~----0~~~~~-|
E|--------------------|

==============================================
Guitar 2:
e|-----------------|
B|-----------------|
G|-----------------|
D|-----------------|
A|-2b----(2)-------|
E|------------0~~~~|

==============================================
Chorus 1:
Guitar 3:
e|------|
B|------|
G|-9\---|
D|-9\---|
A|-7\---|
E|------|

Guitar 4:
e|---------------------|
B|---------------------|
G|---------------------|
D|----------0--0h2-----|
A|------0h2------------|
E|-----------------0~~-|

Guitar 1: Just keep picking your strings, but cover the
strings lightly with your fret hand to muffle the strings.
Just do this repeatedly.
e|------------------|
B|-x-x-x-x-x-x-x-x--|
G|-x-x-x-x-x-x-x-x--|
D|-x-x-x-x-x-x-x-x--|
A|-x-x-x-x-x-x-x-x--|
E|------------------|

=============================================
Guitar 2:
e|--------------------|
B|--------------------|
G|--------------------|
D|--------------------|
A|-0h2~~~~~----0~~~~~-|
E|--------------------|

==============================================
Guitar 2:
e|--------------------------|
B|--------------------------|
G|--------------------------|
D|---------2-2------2-2---2-|
A|-2-2-5-5--------5-----5---|
E|--------------------------|

==============================================
Guitar 2:
e|--------------------|
B|--------------------|
G|--------------------|
D|--------------------|
A|-0h2~~~~~----0~~~~~-|
E|--------------------|

==============================================
Guitar 2:
e|-----------------|
B|-----------------|
G|-----------------|
D|-----------------|
A|-2b----(2)-------|
E|------------0~~~~|

==============================================
Chorus 2:
Guitar 3:
e|------|
B|------|
G|-9\---|
D|-9\---|
A|-7\---|
E|------|

Guitar 4: Play this a couple of times during the chorus.
e|---------------------|
B|---------------------|
G|---------------------|
D|----------0--0h2-----|
A|------0h2------------|
E|-----------------0~~-|

Guitar 1: Just keep picking your strings, but cover the
strings lightly with your fret hand to muffle the strings.
Just do this repeatedly.
e|------------------|
B|-x-x-x-x-x-x-x-x--|
G|-x-x-x-x-x-x-x-x--|
D|-x-x-x-x-x-x-x-x--|
A|-x-x-x-x-x-x-x-x--|
E|------------------|


**After you play the Chorus 2 a couple of times, then comes in the solo after the Sax solo:**

Guitar 5: Listen for the rhythm of the first two chords only, then hit the last chord once,
using your wammy bar.
e|-----------------|
B|-9--7----7vvvvv--|
G|-9--7----7vvvvv--|
D|---------7vvvvv--|
A|-----------------|
E|-----------------|

===================================================
Guitar 5: Listen for rhythm of these chords. After this, just play the verse tabs again, 
chorus, and your done.
e|-------|
B|-9--7--|
G|-9--7--|
D|-9--7--|
A|-------|
E|-------|


Please rate and comment this tab.
[travis]
Tap to rate this tab
# A B C D E F G H I J K L M N O P Q R S T U V W X Y Z