Song name
# A B C D E F G H I J K L M N O P Q R S T U V W X Y Z

Inxs - Guns In The Sky tab

               INXS-Guns In The Sky
     this is a great song I hope You like the tab, its one of my favorites


whole song until solo break then do this again after the solo break
e------------------------------------------------------|
b------------------------------------------------------|
g------7--9---7-9--------------------------------------|
d------5--7---5-7--------------------------------------|
a------5--7---5-7--------------------------------------|
e------------------------------------------------------|

e---------------------------------------------------------|
b---------------------------------------------------------|
g------------------------13b13----------9-----------------| hit as many times as need
d----------------------15-----15h13h15--------------------|
a---------------------------------------------------------|
e----------12/1--1/12-------------------------------------|

  I did it in like five minutes so whatever, I hope You Like It, INXS Rocks
Tap to rate this tab
# A B C D E F G H I J K L M N O P Q R S T U V W X Y Z