Song name
# A B C D E F G H I J K L M N O P Q R S T U V W X Y Z

Irakli Charkviani - Wyals To Water tab

Help us improve GuitareTab! Take a short survey!
 Artist: irakli charkviani
 song info: This song is Georgian and the text is in Georgian languige
 song name: wyals (To water)
 Tabs: 

Am
==
e-----------0-----0------|     
B--------1(h)-1----------| 
A------2--------2--------| x2
D----2-------------------| 
A--0---------------------|
E------------------------|

C
==  
e----------0-----3-------|    
B--------1---1-----------| 
A------0-------0---------| 
D----2-------------------| 
A--3---------------------|
E------------------------| 

G
==
e----------3-----3-------|    
B--------0---0-----------| 
A------0-------0---------| 
D----0-------------------| 
A------------------------|
E--3---------------------|
Related for Wyals To Water tab