Guitaretab - guitar tabs
Song name
# A B C D E F G H I J K L M N O P Q R S T U V W X Y Z

Iris Dement - Our Town tab

                           Willy Mason
                        Where The Humans Eat
                            Our Town

Here ya' go hope it works! Its only the verse mind!


Intro                                       Verse
                                          Is That A Guitar Or A Machine Gun?
e|----------X-2-2-X-2-X---------X-2-2-X-2-X---------X-2-2-X-2-X-|
B|----------X-3-3-X-3-X---------X-3-3-X-3-X---------X-3-3-X-3-X-|
G|--2-2-2-2-X-2-2-X-2-X-2-2-2-2-X-2-2-X-2-X-2-2-2-2-X-2-2-X-2-X-|
D|--2-2-2-2-X---------X-2-2-2-2-X---------X-2-2-2-2-X---------X-|
A|------3---X---------X-----3---X---------X-----3---X---------X-|
E|----------X---------X---------X---------X---------X---------X-|

  Dont Make Me Take It Away.              You know I think you are a bad one
e|----------X-2-2-X-2-X---------X-2-2-X-2-X---------X-2-2-X-2-X-|
B|----------X-3-3-X-3-X---------X-3-3-X-3-X---------X-3-3-X-3-X-|
G|--2-2-2-2-X-2-2-X-2-X-2-2-2-2-X-2-2-X-2-X-2-2-2-2-X-2-2-X-2-X-|
D|--2-2-2-2-X---------X-2-2-2-2-X---------X-2-2-2-2-X---------X-|
A|------3---X---------X-----3---X---------X-----3---X---------X-|
E|----------X---------X---------X---------X---------X---------X-|

  I can tell by your face.                G-G-G-Get down on the ground now.
e|----------X-2-2-X-2-X---------X-2-2-X-2-X---------X-2-2-X-2-X-|
B|----------X-3-3-X-3-X---------X-3-3-X-3-X---------X-3-3-X-3-X-|
G|--2-2-2-2-X-2-2-X-2-X-2-2-2-2-X-2-2-X-2-X-2-2-2-2-X-2-2-X-2-X-|
D|--2-2-2-2-X---------X-2-2-2-2-X---------X-2-2-2-2-X---------X-|
A|------3---X---------X-----3---X---------X-----3---X---------X-|
E|----------X---------X---------X---------X---------X---------X-|

Donít make me do this the hard way         You're just a shadow
e|----------X-2-2-X-2-X---------X-2-2-X-2-X---------X-2-2-X-2-X-|
B|----------X-3-3-X-3-X---------X-3-3-X-3-X---------X-3-3-X-3-X-|
G|--2-2-2-2-X-2-2-X-2-X-2-2-2-2-X-2-2-X-2-X-2-2-2-2-X-2-2-X-2-X-|
D|--2-2-2-2-X---------X-2-2-2-2-X---------X-2-2-2-2-X---------X-|
A|------3---X---------X-----3---X---------X-----3---X---------X-|
E|----------X---------X---------X---------X---------X---------X-|
[ Tab from: http://www.guitaretab.com/i/iris-dement/124600.html ]
In the back seat now As they drive you away-
e|----------X-2-2-X-2-X---------X-2-2-X-2-2-2-2-2-|
B|----------X-3-3-X-3-X---------X-3-3-X-3-3-3-3-3-|
G|--2-2-2-2-X-2-2-X-2-X-2-2-2-2-X-2-2-X-2-2-2-2-2-|
D|--2-2-2-2-X---------X-2-2-2-2-X-----------------|
A|------3---X---------X-----3---X-----------------|
E|----------X---------X---------X-----------------|


Chorus

And couldnít you see
This is no place to be
At the wrong time.
You know youíre not the only one here
Looking for some at the wrong time.
And just that look in your eyes
Youíre just not quite uptight
Enough for our town.
And now donít try to fight
Because we know that weíre right.
In our town.
Our town.

Verse

And itís just you behind the bars now
Staring into space.
Thereís time to think about each sound
And itís effect on your face.
Time to move you to the big cell.
Youíre all in this together now.
This is where the really big deals go down
Just like in the street behind the White House.

Chorus

Itís easy to see
This is no place to be
At the wrong time.
And thereís a feeling in here
That spreads like a disease
That itís the wrong time.
Just got to look in our eyes
And itíll make you uptight
In our town.
And now the more that you fight
The more we know that weíre right
In our town.
Our town.

Verse

Now donít you worry about your dinner, son.
Thatís about the last thing on my mind.
You know it ainít gonna be a pretty one.
What did you expect to find?
Iíve got some white bread,
Cheese spread,
And some mayonnaise.
Iíve got some white bread,
Cheese spread,
And some mayonnaise.
The judge canít see you quite yet.
This has been a busy week for us.
Friday was a big bust.
Weíre just trying to clean these streets up.

Chorus

Couldnít you see
Thatís just no place to be
At the wrong time.
I think you mother
Should have never let you out at the wrong time.
We caught you looking at us
And weíre gonna bust you up
In our town.
And you know everybodyís gonna watch you
Go straight down
In our town.
Our town

---------------------------------------------------------------------

Im sorry thats all I could come up with so far!
The verses are basically the same :P
I hope it came in use!
Related for Our Town tab