Song name
# A B C D E F G H I J K L M N O P Q R S T U V W X Y Z

Iris - Isolados Do Mundo tab

Help us improve GuitareTab! Take a short survey!
Bem...
J que ningum se decide a fazer uma tablatura de nenhuma msica dos ris eu  gostava de 
aqui a tablatura desta grande msica da banda algarvia mais famosa!

Esta msica tirei toda de ouvido por isso se descobrirem algum erro ou no concordarem 
alguma parte enviem para pedro.q.guimaraes@gmail.com

Em relao aos acordes tenho a certeza de que esto correctos e solo tambm penso que sim...
o meu ouvido no se costuma enganar loOl ...mas aceito crticas ;)

      Acordes usados:

      G 320033  Sol
     C9 x32033  D de nona
      D x00232  R
      C x32010  D


   Introduo:

   G  C9


C9                G       C9
     D-me um cigarro
                 G                 C9
     Deixa-me entrar nesse mundo vazio
                   G      C9
     Perdidos na noite
                 G                    C9
     Preciso de algum que me faa sentir


                      D
     O prazer de viver
                    C                     D
     E deitados na areia, ficmos to juntos
                    C                     D
     Senti os teus lbios em gestos profundos
                C
     Ficmos os dois
                  G        C9  C  C9
     Isolados do Mundo!

     Entra no carro
     Vamos correr esse mundo vazio
     Perdidos na noite
     E juntos iremos ento descobrir

     O prazer de viver
     E deitados na areia, ficmos to juntos
     Senti os teus lbios em gestos profundos
     Ficmos os dois
     Isolados do Mundo!


Solo:

e ---------------------10-------10-----------------------------------|
B ----------------7-8-----8---8----8---8---8---8---8---8-------------|
G ------------7-9-----------7--------7---5---4-----------------4-----|
D -----7-9-10------------------------------------7---5---4-5-7-------|
A --10-----------------------------------------------------------5~--|
E -------------------------------------------------------------------|

-----------------------10-----8-----7--5--------------------|
--------------8~-----8------8-----8------8-7-5--------------|
------------7------7------7-----7--------------7-5-4--------|
-----7-9-10------------------------------------------7-5----|
--10--------------------------------------------------------|
------------------------------------------------------------|

------10-----8-----7--7-8----7---------------------------------|
----8------8-----8--------10---8-10-7-8---7--------------------|
--7------7-----7------------------------9---7-9----7------7~---|
------------------------------------------------10---9-10------|
---------------------------------------------------------------|
---------------------------------------------------------------|

E  tudo!
Este solo soa-me muito bem mas se acharem que tem alguma parte que podia ser melhorada digam!
Apesar de no ser muito difcil, no  propriamente um solo que se consiga tocar logo  
;P

Classifiquem esta tablatura!

ESTA MSICA  DEDICADA AO PEOPLE DO FAROL!!!!  xD
Related for Isolados Do Mundo tab